ISO-10303-21;
HEADER;
FILE_DESCRIPTION (( 'STEP AP203' ),
    '1' );
FILE_NAME ('A0629-1-W.STEP',
    '2011-10-03T15:35:24',
    ( '' ),
    ( '' ),
    'SwSTEP 2.0',
    'SolidWorks 2011',
    '' );
FILE_SCHEMA (( 'CONFIG_CONTROL_DESIGN' ));
ENDSEC;

DATA;
#1 = DESIGN_CONTEXT ( 'detailed design', #69, 'design' ) ;
#2 = UNCERTAINTY_MEASURE_WITH_UNIT (LENGTH_MEASURE( 1.000000000000000100E-005 ), #344, 'distance_accuracy_value', 'NONE');
#3 = MANIFOLD_SOLID_BREP ( 'Combine1', #96 ) ;
#4 = PRODUCT_DEFINITION_SHAPE ( 'NONE', 'NONE',  #200 ) ;
#5 = PRODUCT ( 'A0629-1-W', 'A0629-1-W', '', ( #341 ) ) ;
#6 = DIMENSIONAL_EXPONENTS ( 1.000000000000000000, 0.0000000000000000000, 0.0000000000000000000, 0.0000000000000000000, 0.0000000000000000000, 0.0000000000000000000, 0.0000000000000000000 ) ;
#7 = APPROVAL_DATE_TIME ( #8, #179 ) ;
#8 = DATE_AND_TIME ( #9, #61 ) ;
#9 = CALENDAR_DATE ( 2011, 3, 10 ) ;
#10 = COORDINATED_UNIVERSAL_TIME_OFFSET ( 5, 0, .BEHIND. ) ;
#11 = APPROVAL_ROLE ( '' ) ;
#12 = APPROVAL_STATUS ( 'not_yet_approved' ) ;
#13 = PERSON_AND_ORGANIZATION ( #158, #65 ) ;
#14 = DATE_TIME_ROLE ( 'classification_date' ) ;
#15 = DATE_AND_TIME ( #16, #60 ) ;
#16 = CALENDAR_DATE ( 2011, 3, 10 ) ;
#17 = COORDINATED_UNIVERSAL_TIME_OFFSET ( 5, 0, .BEHIND. ) ;
#18 = PERSON_AND_ORGANIZATION_ROLE ( 'classification_officer' ) ;
#19 = PERSON_AND_ORGANIZATION ( #158, #65 ) ;
#20 = SECURITY_CLASSIFICATION_LEVEL ( 'unclassified' ) ;
#21 = PERSON_AND_ORGANIZATION_ROLE ( 'design_supplier' ) ;
#22 = PERSON_AND_ORGANIZATION ( #158, #65 ) ;
#23 = PERSON_AND_ORGANIZATION_ROLE ( 'creator' ) ;
#24 = PERSON_AND_ORGANIZATION ( #158, #65 ) ;
#25 = APPROVAL_DATE_TIME ( #26, #184 ) ;
#26 = DATE_AND_TIME ( #27, #59 ) ;
#27 = CALENDAR_DATE ( 2011, 3, 10 ) ;
#28 = COORDINATED_UNIVERSAL_TIME_OFFSET ( 5, 0, .BEHIND. ) ;
#29 = APPROVAL_ROLE ( '' ) ;
#30 = APPROVAL_STATUS ( 'not_yet_approved' ) ;
#31 = PERSON_AND_ORGANIZATION ( #158, #65 ) ;
#32 = DATE_TIME_ROLE ( 'creation_date' ) ;
#33 = DATE_AND_TIME ( #34, #55 ) ;
#34 = CALENDAR_DATE ( 2011, 3, 10 ) ;
#35 = COORDINATED_UNIVERSAL_TIME_OFFSET ( 5, 0, .BEHIND. ) ;
#36 = PERSON_AND_ORGANIZATION_ROLE ( 'creator' ) ;
#37 = PERSON_AND_ORGANIZATION ( #158, #65 ) ;
#38 = APPROVAL_DATE_TIME ( #39, #186 ) ;
#39 = DATE_AND_TIME ( #40, #50 ) ;
#40 = CALENDAR_DATE ( 2011, 3, 10 ) ;
#41 = COORDINATED_UNIVERSAL_TIME_OFFSET ( 5, 0, .BEHIND. ) ;
#42 = APPROVAL_ROLE ( '' ) ;
#43 = APPROVAL_STATUS ( 'not_yet_approved' ) ;
#44 = PERSON_AND_ORGANIZATION ( #158, #65 ) ;
#45 = APPLICATION_PROTOCOL_DEFINITION ( 'international standard', 'config_control_design', 1994, #69 ) ;
#46 = PERSON_AND_ORGANIZATION_ROLE ( 'design_owner' ) ;
#47 = CC_DESIGN_APPROVAL ( #186, ( #200 ) ) ;
#48 = APPROVAL_PERSON_ORGANIZATION ( #44, #186, #42 ) ;
#49 = APPROVAL_PERSON_ORGANIZATION ( #13, #179, #11 ) ;
#50 = LOCAL_TIME ( 11, 35, 24.00000000000000000, #41 ) ;
#51 = AXIS2_PLACEMENT_3D ( 'NONE', #317, #322, #315 ) ;
#52 = CC_DESIGN_APPROVAL ( #184, ( #64 ) ) ;
#53 = AXIS2_PLACEMENT_3D ( 'NONE', #313, #303, #310 ) ;
#54 = CC_DESIGN_APPROVAL ( #179, ( #67 ) ) ;
#55 = LOCAL_TIME ( 11, 35, 24.00000000000000000, #35 ) ;
#56 = CC_DESIGN_SECURITY_CLASSIFICATION ( #67, ( #64 ) ) ;
#57 = AXIS2_PLACEMENT_3D ( 'NONE', #302, #308, #285 ) ;
#58 = AXIS2_PLACEMENT_3D ( 'NONE', #347, #338, #337 ) ;
#59 = LOCAL_TIME ( 11, 35, 24.00000000000000000, #28 ) ;
#60 = LOCAL_TIME ( 11, 35, 24.00000000000000000, #17 ) ;
#61 = LOCAL_TIME ( 11, 35, 24.00000000000000000, #10 ) ;
#62 =( GEOMETRIC_REPRESENTATION_CONTEXT ( 3 ) GLOBAL_UNCERTAINTY_ASSIGNED_CONTEXT ( ( #2 ) ) GLOBAL_UNIT_ASSIGNED_CONTEXT ( ( #344, #343, #342 ) ) REPRESENTATION_CONTEXT ( 'NONE', 'WORKASPACE' ) );
#63 = AXIS2_PLACEMENT_3D ( 'NONE', #307, #312, #299 ) ;
#64 = PRODUCT_DEFINITION_FORMATION_WITH_SPECIFIED_SOURCE ( 'ANY', '', #5, .NOT_KNOWN. ) ;
#65 = ORGANIZATION ( 'UNSPECIFIED', 'UNSPECIFIED', '' ) ;
#66 = APPROVAL_PERSON_ORGANIZATION ( #31, #184, #29 ) ;
#67 = SECURITY_CLASSIFICATION ( '', '', #20 ) ;
#68 = APPLICATION_CONTEXT ( 'configuration controlled 3d designs of mechanical parts and assemblies' ) ;
#69 = APPLICATION_CONTEXT ( 'configuration controlled 3d designs of mechanical parts and assemblies' ) ;
#70 = AXIS2_PLACEMENT_3D ( 'NONE', #219, #204, #205 ) ;
#71 = CONICAL_SURFACE ( 'NONE', #57, 0.3299999999999997400, 0.7853981633974437300 ) ;
#72 = AXIS2_PLACEMENT_3D ( 'NONE', #143, #142, #139 ) ;
#73 = CIRCLE ( 'NONE', #101, 0.3299999999999997400 ) ;
#74 = AXIS2_PLACEMENT_3D ( 'NONE', #153, #150, #151 ) ;
#75 = AXIS2_PLACEMENT_3D ( 'NONE', #294, #292, #333 ) ;
#76 = AXIS2_PLACEMENT_3D ( 'NONE', #286, #320, #300 ) ;
#77 = AXIS2_PLACEMENT_3D ( 'NONE', #141, #140, #144 ) ;
#78 = AXIS2_PLACEMENT_3D ( 'NONE', #309, #306, #289 ) ;
#79 = VECTOR ( 'NONE', #129, 39.37007874015748100 ) ;
#80 = CIRCLE ( 'NONE', #70, 0.3224999999999997900 ) ;
#81 = AXIS2_PLACEMENT_3D ( 'NONE', #121, #120, #112 ) ;
#82 = AXIS2_PLACEMENT_3D ( 'NONE', #295, #321, #319 ) ;
#83 = CIRCLE ( 'NONE', #110, 0.3299999999999997400 ) ;
#84 = AXIS2_PLACEMENT_3D ( 'NONE', #282, #211, #213 ) ;
#85 = VECTOR ( 'NONE', #149, 39.37007874015748100 ) ;
#86 = VECTOR ( 'NONE', #156, 39.37007874015748100 ) ;
#87 = CONICAL_SURFACE ( 'NONE', #75, 0.3299999999999997400, 0.7853981633974437300 ) ;
#88 = VECTOR ( 'NONE', #261, 39.37007874015748100 ) ;
#89 = CIRCLE ( 'NONE', #100, 0.2999999999999997700 ) ;
#90 = CIRCLE ( 'NONE', #74, 0.3299999999999997400 ) ;
#91 = AXIS2_PLACEMENT_3D ( 'NONE', #208, #210, #209 ) ;
#92 = AXIS2_PLACEMENT_3D ( 'NONE', #130, #125, #116 ) ;
#93 = VECTOR ( 'NONE', #126, 39.37007874015748100 ) ;
#94 = AXIS2_PLACEMENT_3D ( 'NONE', #127, #131, #155 ) ;
#95 = CIRCLE ( 'NONE', #91, 0.2999999999999997700 ) ;
#96 = CLOSED_SHELL ( 'NONE', ( #195, #192, #197, #190, #193, #196, #194, #189, #199, #187, #162 ) ) ;
#97 = CIRCLE ( 'NONE', #102, 0.2999999999999997700 ) ;
#98 = CIRCLE ( 'NONE', #77, 0.2999999999999997700 ) ;
#99 = CIRCLE ( 'NONE', #72, 0.3299999999999997400 ) ;
#100 = AXIS2_PLACEMENT_3D ( 'NONE', #136, #145, #146 ) ;
#101 = AXIS2_PLACEMENT_3D ( 'NONE', #329, #290, #288 ) ;
#102 = AXIS2_PLACEMENT_3D ( 'NONE', #117, #123, #122 ) ;
#103 = AXIS2_PLACEMENT_3D ( 'NONE', #284, #291, #293 ) ;
#104 = VECTOR ( 'NONE', #335, 39.37007874015748100 ) ;
#105 = VECTOR ( 'NONE', #331, 39.37007874015748100 ) ;
#106 = AXIS2_PLACEMENT_3D ( 'NONE', #114, #132, #133 ) ;
#107 = CIRCLE ( 'NONE', #81, 0.3224999999999996800 ) ;
#108 = VECTOR ( 'NONE', #152, 39.37007874015748100 ) ;
#109 = CIRCLE ( 'NONE', #106, 0.3224999999999997900 ) ;
#110 = AXIS2_PLACEMENT_3D ( 'NONE', #251, #202, #203 ) ;
#111 = CIRCLE ( 'NONE', #94, 0.3224999999999996800 ) ;
#112 = DIRECTION ( 'NONE',  ( 0.1788695390433779100, -2.117711622995555000E-016, 0.9838728007229438100 ) ) ;
#113 = FACE_OUTER_BOUND ( 'NONE', #278, .T. ) ;
#114 = CARTESIAN_POINT ( 'NONE',  ( 3.587178951713035500E-022, -0.3613475400000001300, 9.796654620205268400E-019 ) ) ;
#115 = LINE ( 'NONE', #124, #93 ) ;
#116 = DIRECTION ( 'NONE',  ( 0.1788695390433779100, 0.0000000000000000000, 0.9838728007229438100 ) ) ;
#117 = CARTESIAN_POINT ( 'NONE',  ( 3.587178951532650800E-022, -0.4233475400000001900, -1.420515620409361800E-017 ) ) ;
#118 = CARTESIAN_POINT ( 'NONE',  ( -0.05902694788431470100, -2.331273898332296000, -0.3246780242385717300 ) ) ;
#119 = FACE_OUTER_BOUND ( 'NONE', #271, .T. ) ;
#120 = DIRECTION ( 'NONE',  ( -1.870299865431272500E-031, -1.000000000000000000, -2.449164784857117100E-016 ) ) ;
#121 = CARTESIAN_POINT ( 'NONE',  ( 3.587178951300804300E-022, -0.5808475400000000500, -5.277950156559315000E-017 ) ) ;
#122 = DIRECTION ( 'NONE',  ( 0.1788695390433779100, -2.276539994720221300E-016, 0.9838728007229438100 ) ) ;
#123 = DIRECTION ( 'NONE',  ( -1.870299865431272500E-031, -1.000000000000000000, -2.449164784857117100E-016 ) ) ;
#124 = CARTESIAN_POINT ( 'NONE',  ( -0.05768542634148936900, -2.331273898332296000, -0.3172989782331496200 ) ) ;
#125 = DIRECTION ( 'NONE',  ( -1.870299865431272500E-031, -1.000000000000000000, -2.449164784857117100E-016 ) ) ;
#126 = DIRECTION ( 'NONE',  ( -1.870299865431272700E-031, -1.000000000000000000, -2.449164784857117100E-016 ) ) ;
#127 = CARTESIAN_POINT ( 'NONE',  ( 3.587178951300804300E-022, -0.5808475400000000500, -5.277950156559315000E-017 ) ) ;
#128 = LINE ( 'NONE', #118, #108 ) ;
#129 = DIRECTION ( 'NONE',  ( -1.870299865431272700E-031, -1.000000000000000000, -2.449164784857117100E-016 ) ) ;
#130 = CARTESIAN_POINT ( 'NONE',  ( 3.587178947976132400E-022, -2.331273898332296000, -4.814877610969077100E-016 ) ) ;
#131 = DIRECTION ( 'NONE',  ( -1.870299865431272500E-031, -1.000000000000000000, -2.449164784857117100E-016 ) ) ;
#132 = DIRECTION ( 'NONE',  ( -1.870299865431272500E-031, -1.000000000000000000, -2.449164784857117100E-016 ) ) ;
#133 = DIRECTION ( 'NONE',  ( 0.0000000000000000000, -2.117711622995554200E-016, 1.000000000000000000 ) ) ;
#134 = LINE ( 'NONE', #137, #85 ) ;
#135 = LINE ( 'NONE', #147, #86 ) ;
#136 = CARTESIAN_POINT ( 'NONE',  ( 3.587178950997757100E-022, -0.7383475400000002500, -9.135384692709279300E-017 ) ) ;
#137 = CARTESIAN_POINT ( 'NONE',  ( 0.05902694788431466600, -2.331273898332296000, 0.3246780242385707800 ) ) ;
#138 = CARTESIAN_POINT ( 'NONE',  ( 0.05366086171301332600, -2.331273898332296000, 0.2951618402168824100 ) ) ;
#139 = DIRECTION ( 'NONE',  ( 0.1788695390433779100, -2.069581813382019200E-016, 0.9838728007229439200 ) ) ;
#140 = DIRECTION ( 'NONE',  ( -1.870299865431272500E-031, -1.000000000000000000, -2.449164784857117100E-016 ) ) ;
#141 = CARTESIAN_POINT ( 'NONE',  ( 3.587178950997757100E-022, -0.7383475400000002500, -9.135384692709279300E-017 ) ) ;
#142 = DIRECTION ( 'NONE',  ( -1.870299865431272500E-031, -1.000000000000000000, -2.449164784857117100E-016 ) ) ;
#143 = CARTESIAN_POINT ( 'NONE',  ( 3.587178951288477100E-022, -0.5883475400000002200, -5.461637515423606300E-017 ) ) ;
#144 = DIRECTION ( 'NONE',  ( 0.1788695390433779100, -4.553079989440442600E-016, 0.9838728007229438100 ) ) ;
#145 = DIRECTION ( 'NONE',  ( -1.870299865431272500E-031, -1.000000000000000000, -2.449164784857117100E-016 ) ) ;
#146 = DIRECTION ( 'NONE',  ( 0.1788695390433779100, -4.553079989440442600E-016, 0.9838728007229438100 ) ) ;
#147 = CARTESIAN_POINT ( 'NONE',  ( 0.05902694788431466600, -0.5883475400000003400, 0.3246780242385711700 ) ) ;
#148 = LINE ( 'NONE', #138, #79 ) ;
#149 = DIRECTION ( 'NONE',  ( -1.870299865431272700E-031, -1.000000000000000000, -2.449164784857117100E-016 ) ) ;
#150 = DIRECTION ( 'NONE',  ( -1.870299865431272500E-031, -1.000000000000000000, -2.449164784857117100E-016 ) ) ;
#151 = DIRECTION ( 'NONE',  ( 0.1788695390433779300, -4.139163626764038400E-016, 0.9838728007229439200 ) ) ;
#152 = DIRECTION ( 'NONE',  ( -1.870299865431272700E-031, -1.000000000000000000, -2.449164784857117100E-016 ) ) ;
#153 = CARTESIAN_POINT ( 'NONE',  ( 3.587178950997757100E-022, -0.7383475400000002500, -9.135384692709279300E-017 ) ) ;
#154 = CYLINDRICAL_SURFACE ( 'NONE', #92, 0.2999999999999997700 ) ;
#155 = DIRECTION ( 'NONE',  ( 0.1788695390433779100, -2.117711622995555000E-016, 0.9838728007229438100 ) ) ;
#156 = DIRECTION ( 'NONE',  ( 0.1264798640052838500, -0.7071067811865510100, 0.6957031292161908200 ) ) ;
#157 = ADVANCED_BREP_SHAPE_REPRESENTATION ( 'A0629-1-W', ( #3, #58 ), #62 ) ;
#158 = PERSON ( 'UNSPECIFIED', 'UNSPECIFIED', 'UNSPECIFIED', ('UNSPECIFIED'), ('UNSPECIFIED'), ('UNSPECIFIED') ) ;
#159 = EDGE_CURVE ( 'NONE', #227, #238, #83, .T. ) ;
#160 = EDGE_CURVE ( 'NONE', #247, #245, #80, .T. ) ;
#161 = EDGE_CURVE ( 'NONE', #257, #254, #95, .T. ) ;
#162 = ADVANCED_FACE ( 'NONE', ( #246 ), #212, .F. ) ;
#163 = EDGE_CURVE ( 'NONE', #255, #248, #214, .T. ) ;
#164 = EDGE_CURVE ( 'NONE', #256, #224, #98, .T. ) ;
#165 = EDGE_CURVE ( 'NONE', #258, #248, #99, .T. ) ;
#166 = EDGE_CURVE ( 'NONE', #255, #253, #107, .T. ) ;
#167 = EDGE_CURVE ( 'NONE', #247, #255, #115, .T. ) ;
#168 = EDGE_CURVE ( 'NONE', #238, #227, #90, .T. ) ;
#169 = EDGE_CURVE ( 'NONE', #245, #247, #109, .T. ) ;
#170 = EDGE_CURVE ( 'NONE', #224, #256, #89, .T. ) ;
#171 = EDGE_CURVE ( 'NONE', #258, #238, #134, .T. ) ;
#172 = EDGE_CURVE ( 'NONE', #253, #258, #135, .T. ) ;
#173 = EDGE_CURVE ( 'NONE', #254, #257, #97, .T. ) ;
#174 = EDGE_CURVE ( 'NONE', #254, #256, #148, .T. ) ;
#175 = EDGE_CURVE ( 'NONE', #248, #227, #128, .T. ) ;
#176 = EDGE_CURVE ( 'NONE', #253, #255, #111, .T. ) ;
#177 = CC_DESIGN_PERSON_AND_ORGANIZATION_ASSIGNMENT ( #19, #18, ( #67 ) ) ;
#178 = CC_DESIGN_DATE_AND_TIME_ASSIGNMENT ( #15, #14, ( #67 ) ) ;
#179 = APPROVAL ( #12, 'UNSPECIFIED' ) ;
#180 = PRODUCT_RELATED_PRODUCT_CATEGORY ( 'detail', '', ( #5 ) ) ;
#181 = CC_DESIGN_PERSON_AND_ORGANIZATION_ASSIGNMENT ( #22, #21, ( #64 ) ) ;
#182 = CC_DESIGN_PERSON_AND_ORGANIZATION_ASSIGNMENT ( #37, #36, ( #200 ) ) ;
#183 = CC_DESIGN_DATE_AND_TIME_ASSIGNMENT ( #33, #32, ( #200 ) ) ;
#184 = APPROVAL ( #30, 'UNSPECIFIED' ) ;
#185 = CC_DESIGN_PERSON_AND_ORGANIZATION_ASSIGNMENT ( #24, #23, ( #64 ) ) ;
#186 = APPROVAL ( #43, 'UNSPECIFIED' ) ;
#187 = ADVANCED_FACE ( 'NONE', ( #119 ), #154, .F. ) ;
#188 = CC_DESIGN_PERSON_AND_ORGANIZATION_ASSIGNMENT ( #336, #46, ( #5 ) ) ;
#189 = ADVANCED_FACE ( 'NONE', ( #113 ), #296, .T. ) ;
#190 = ADVANCED_FACE ( 'NONE', ( #301 ), #283, .T. ) ;
#191 = EDGE_CURVE ( 'NONE', #257, #224, #324, .T. ) ;
#192 = ADVANCED_FACE ( 'NONE', ( #332 ), #87, .T. ) ;
#193 = ADVANCED_FACE ( 'NONE', ( #305 ), #304, .T. ) ;
#194 = ADVANCED_FACE ( 'NONE', ( #325, #323 ), #327, .T. ) ;
#195 = ADVANCED_FACE ( 'NONE', ( #318 ), #316, .F. ) ;
#196 = ADVANCED_FACE ( 'NONE', ( #314 ), #311, .T. ) ;
#197 = ADVANCED_FACE ( 'NONE', ( #326 ), #330, .T. ) ;
#198 = EDGE_CURVE ( 'NONE', #248, #258, #73, .T. ) ;
#199 = ADVANCED_FACE ( 'NONE', ( #298 ), #71, .T. ) ;
#200 = PRODUCT_DEFINITION ( 'UNKNOWN', '', #64, #1 ) ;
#201 = EDGE_CURVE ( 'NONE', #245, #253, #353, .T. ) ;
#202 = DIRECTION ( 'NONE',  ( -1.870299865431272500E-031, -1.000000000000000000, -2.449164784857117100E-016 ) ) ;
#203 = DIRECTION ( 'NONE',  ( 0.1788695390433779300, -4.139163626764038400E-016, 0.9838728007229439200 ) ) ;
#204 = DIRECTION ( 'NONE',  ( -1.870299865431272500E-031, -1.000000000000000000, -2.449164784857117100E-016 ) ) ;
#205 = DIRECTION ( 'NONE',  ( 8.881784197001252300E-016, -2.117711622995554200E-016, 1.000000000000000000 ) ) ;
#206 = ORIENTED_EDGE ( 'NONE', *, *, #201, .T. ) ;
#207 = ORIENTED_EDGE ( 'NONE', *, *, #173, .T. ) ;
#208 = CARTESIAN_POINT ( 'NONE',  ( 3.587178951532650800E-022, -0.4233475400000001900, -1.420515620409361800E-017 ) ) ;
#209 = DIRECTION ( 'NONE',  ( 0.1788695390433779100, -2.276539994720221300E-016, 0.9838728007229438100 ) ) ;
#210 = DIRECTION ( 'NONE',  ( -1.870299865431272500E-031, -1.000000000000000000, -2.449164784857117100E-016 ) ) ;
#211 = DIRECTION ( 'NONE',  ( -3.736644597570818000E-021, 1.000000000000000000, 1.224582392428555900E-016 ) ) ;
#212 = PLANE ( 'NONE',  #84 ) ;
#213 = DIRECTION ( 'NONE',  ( 1.000000000000000000, 3.736644597570818800E-021, -3.736644597560784400E-021 ) ) ;
#214 = LINE ( 'NONE', #223, #88 ) ;
#215 = ORIENTED_EDGE ( 'NONE', *, *, #198, .F. ) ;
#216 = ORIENTED_EDGE ( 'NONE', *, *, #174, .T. ) ;
#217 = ORIENTED_EDGE ( 'NONE', *, *, #163, .T. ) ;
#218 = ORIENTED_EDGE ( 'NONE', *, *, #173, .F. ) ;
#219 = CARTESIAN_POINT ( 'NONE',  ( 3.587178951713035500E-022, -0.3613475400000001300, 9.796654620205268400E-019 ) ) ;
#220 = ORIENTED_EDGE ( 'NONE', *, *, #201, .F. ) ;
#221 = ORIENTED_EDGE ( 'NONE', *, *, #176, .T. ) ;
#222 = ORIENTED_EDGE ( 'NONE', *, *, #191, .F. ) ;
#223 = CARTESIAN_POINT ( 'NONE',  ( -0.05902694788431470100, -0.5883475400000001100, -0.3246780242385713400 ) ) ;
#224 = VERTEX_POINT ( 'NONE', #328 ) ;
#225 = ORIENTED_EDGE ( 'NONE', *, *, #172, .F. ) ;
#226 = ORIENTED_EDGE ( 'NONE', *, *, #171, .T. ) ;
#227 = VERTEX_POINT ( 'NONE', #358 ) ;
#228 = ORIENTED_EDGE ( 'NONE', *, *, #176, .F. ) ;
#229 = ORIENTED_EDGE ( 'NONE', *, *, #169, .F. ) ;
#230 = ORIENTED_EDGE ( 'NONE', *, *, #175, .F. ) ;
#231 = ORIENTED_EDGE ( 'NONE', *, *, #167, .T. ) ;
#232 = ORIENTED_EDGE ( 'NONE', *, *, #161, .T. ) ;
#233 = ORIENTED_EDGE ( 'NONE', *, *, #159, .F. ) ;
#234 = ORIENTED_EDGE ( 'NONE', *, *, #171, .F. ) ;
#235 = ORIENTED_EDGE ( 'NONE', *, *, #168, .F. ) ;
#236 = ORIENTED_EDGE ( 'NONE', *, *, #163, .F. ) ;
#237 = ORIENTED_EDGE ( 'NONE', *, *, #167, .F. ) ;
#238 = VERTEX_POINT ( 'NONE', #348 ) ;
#239 = ORIENTED_EDGE ( 'NONE', *, *, #168, .T. ) ;
#240 = ORIENTED_EDGE ( 'NONE', *, *, #164, .T. ) ;
#241 = ORIENTED_EDGE ( 'NONE', *, *, #159, .T. ) ;
#242 = ORIENTED_EDGE ( 'NONE', *, *, #166, .F. ) ;
#243 = ORIENTED_EDGE ( 'NONE', *, *, #172, .T. ) ;
#244 = ORIENTED_EDGE ( 'NONE', *, *, #164, .F. ) ;
#245 = VERTEX_POINT ( 'NONE', #287 ) ;
#246 = FACE_OUTER_BOUND ( 'NONE', #279, .T. ) ;
#247 = VERTEX_POINT ( 'NONE', #356 ) ;
#248 = VERTEX_POINT ( 'NONE', #354 ) ;
#249 = ORIENTED_EDGE ( 'NONE', *, *, #165, .F. ) ;
#250 = ORIENTED_EDGE ( 'NONE', *, *, #160, .T. ) ;
#251 = CARTESIAN_POINT ( 'NONE',  ( 3.587178950997757100E-022, -0.7383475400000002500, -9.135384692709279300E-017 ) ) ;
#252 = ORIENTED_EDGE ( 'NONE', *, *, #170, .F. ) ;
#253 = VERTEX_POINT ( 'NONE', #355 ) ;
#254 = VERTEX_POINT ( 'NONE', #351 ) ;
#255 = VERTEX_POINT ( 'NONE', #350 ) ;
#256 = VERTEX_POINT ( 'NONE', #352 ) ;
#257 = VERTEX_POINT ( 'NONE', #349 ) ;
#258 = VERTEX_POINT ( 'NONE', #357 ) ;
#259 = ORIENTED_EDGE ( 'NONE', *, *, #191, .T. ) ;
#260 = ORIENTED_EDGE ( 'NONE', *, *, #170, .T. ) ;
#261 = DIRECTION ( 'NONE',  ( -0.1264798640052839400, -0.7071067811865505700, -0.6957031292161912600 ) ) ;
#262 = ORIENTED_EDGE ( 'NONE', *, *, #161, .F. ) ;
#263 = EDGE_LOOP ( 'NONE', ( #237, #250, #206, #242 ) ) ;
#264 = EDGE_LOOP ( 'NONE', ( #262, #259, #260, #280 ) ) ;
#265 = ORIENTED_EDGE ( 'NONE', *, *, #166, .T. ) ;
#266 = EDGE_LOOP ( 'NONE', ( #239, #241 ) ) ;
#267 = ORIENTED_EDGE ( 'NONE', *, *, #165, .T. ) ;
#268 = EDGE_LOOP ( 'NONE', ( #229, #275 ) ) ;
#269 = ORIENTED_EDGE ( 'NONE', *, *, #175, .T. ) ;
#270 = EDGE_LOOP ( 'NONE', ( #244, #252 ) ) ;
#271 = EDGE_LOOP ( 'NONE', ( #222, #218, #216, #240 ) ) ;
#272 = EDGE_LOOP ( 'NONE', ( #277, #231, #228, #220 ) ) ;
#273 = EDGE_LOOP ( 'NONE', ( #267, #269, #235, #234 ) ) ;
#274 = EDGE_LOOP ( 'NONE', ( #236, #265, #243, #215 ) ) ;
#275 = ORIENTED_EDGE ( 'NONE', *, *, #160, .F. ) ;
#276 = EDGE_LOOP ( 'NONE', ( #221, #217, #249, #225 ) ) ;
#277 = ORIENTED_EDGE ( 'NONE', *, *, #169, .T. ) ;
#278 = EDGE_LOOP ( 'NONE', ( #230, #281, #226, #233 ) ) ;
#279 = EDGE_LOOP ( 'NONE', ( #207, #232 ) ) ;
#280 = ORIENTED_EDGE ( 'NONE', *, *, #174, .F. ) ;
#281 = ORIENTED_EDGE ( 'NONE', *, *, #198, .T. ) ;
#282 = CARTESIAN_POINT ( 'NONE',  ( 3.960843411322946500E-022, -0.4233475400000000200, -1.298057381166498600E-017 ) ) ;
#283 = CYLINDRICAL_SURFACE ( 'NONE', #76, 0.3224999999999997300 ) ;
#284 = CARTESIAN_POINT ( 'NONE',  ( 3.587178947976132400E-022, -2.331273898332296000, -4.814877610969077100E-016 ) ) ;
#285 = DIRECTION ( 'NONE',  ( 0.1788695390433779100, -2.069581813382019200E-016, 0.9838728007229439200 ) ) ;
#286 = CARTESIAN_POINT ( 'NONE',  ( 3.587178947976132400E-022, -2.331273898332296000, -4.814877610969077100E-016 ) ) ;
#287 = CARTESIAN_POINT ( 'NONE',  ( 0.05768542634148933500, -0.3613475400000002400, 0.3172989782331491200 ) ) ;
#288 = DIRECTION ( 'NONE',  ( 0.1788695390433779100, -2.069581813382019200E-016, 0.9838728007229439200 ) ) ;
#289 = DIRECTION ( 'NONE',  ( 1.000000000000000000, 3.736644597570818800E-021, -3.736644597560784400E-021 ) ) ;
#290 = DIRECTION ( 'NONE',  ( -1.870299865431272500E-031, -1.000000000000000000, -2.449164784857117100E-016 ) ) ;
#291 = DIRECTION ( 'NONE',  ( -1.870299865431272500E-031, -1.000000000000000000, -2.449164784857117100E-016 ) ) ;
#292 = DIRECTION ( 'NONE',  ( -1.870299865431272500E-031, -1.000000000000000000, -2.449164784857117100E-016 ) ) ;
#293 = DIRECTION ( 'NONE',  ( 0.1788695390433779100, 0.0000000000000000000, 0.9838728007229439200 ) ) ;
#294 = CARTESIAN_POINT ( 'NONE',  ( 3.587178951288477100E-022, -0.5883475400000002200, -5.461637515423606300E-017 ) ) ;
#295 = CARTESIAN_POINT ( 'NONE',  ( 0.2951618402168829100, -0.7383475400000002500, -0.05366086171301340200 ) ) ;
#296 = CYLINDRICAL_SURFACE ( 'NONE', #103, 0.3299999999999997400 ) ;
#297 = CARTESIAN_POINT ( 'NONE',  ( -0.05366086171301335400, -2.331273898332296000, -0.2951618402168833500 ) ) ;
#298 = FACE_OUTER_BOUND ( 'NONE', #274, .T. ) ;
#299 = DIRECTION ( 'NONE',  ( 0.1788695390433779100, 0.0000000000000000000, 0.9838728007229439200 ) ) ;
#300 = DIRECTION ( 'NONE',  ( 0.1788695390433779300, 0.0000000000000000000, 0.9838728007229438100 ) ) ;
#301 = FACE_OUTER_BOUND ( 'NONE', #272, .T. ) ;
#302 = CARTESIAN_POINT ( 'NONE',  ( 3.587178951288477100E-022, -0.5883475400000002200, -5.461637515423606300E-017 ) ) ;
#303 = DIRECTION ( 'NONE',  ( -1.870299865431272500E-031, -1.000000000000000000, -2.449164784857117100E-016 ) ) ;
#304 = PLANE ( 'NONE',  #78 ) ;
#305 = FACE_OUTER_BOUND ( 'NONE', #268, .T. ) ;
#306 = DIRECTION ( 'NONE',  ( -3.736644597570818000E-021, 1.000000000000000000, 1.224582392428555900E-016 ) ) ;
#307 = CARTESIAN_POINT ( 'NONE',  ( 3.587178947976132400E-022, -2.331273898332296000, -4.814877610969077100E-016 ) ) ;
#308 = DIRECTION ( 'NONE',  ( -1.870299865431272500E-031, -1.000000000000000000, -2.449164784857117100E-016 ) ) ;
#309 = CARTESIAN_POINT ( 'NONE',  ( 1.644123760829039500E-022, -0.3613475400000000200, -5.388162978607940300E-018 ) ) ;
#310 = DIRECTION ( 'NONE',  ( 0.1788695390433779300, 0.0000000000000000000, 0.9838728007229438100 ) ) ;
#311 = CYLINDRICAL_SURFACE ( 'NONE', #53, 0.3224999999999997300 ) ;
#312 = DIRECTION ( 'NONE',  ( -1.870299865431272500E-031, -1.000000000000000000, -2.449164784857117100E-016 ) ) ;
#313 = CARTESIAN_POINT ( 'NONE',  ( 3.587178947976132400E-022, -2.331273898332296000, -4.814877610969077100E-016 ) ) ;
#314 = FACE_OUTER_BOUND ( 'NONE', #263, .T. ) ;
#315 = DIRECTION ( 'NONE',  ( 0.1788695390433779100, 0.0000000000000000000, 0.9838728007229438100 ) ) ;
#316 = CYLINDRICAL_SURFACE ( 'NONE', #51, 0.2999999999999997700 ) ;
#317 = CARTESIAN_POINT ( 'NONE',  ( 3.587178947976132400E-022, -2.331273898332296000, -4.814877610969077100E-016 ) ) ;
#318 = FACE_OUTER_BOUND ( 'NONE', #264, .T. ) ;
#319 = DIRECTION ( 'NONE',  ( 0.1788695390433779100, -2.409666616309378300E-016, 0.9838728007229438100 ) ) ;
#320 = DIRECTION ( 'NONE',  ( -1.870299865431272500E-031, -1.000000000000000000, -2.449164784857117100E-016 ) ) ;
#321 = DIRECTION ( 'NONE',  ( -1.910522504832138000E-031, -1.000000000000000000, -2.449164784857117100E-016 ) ) ;
#322 = DIRECTION ( 'NONE',  ( -1.870299865431272500E-031, -1.000000000000000000, -2.449164784857117100E-016 ) ) ;
#323 = FACE_BOUND ( 'NONE', #270, .T. ) ;
#324 = LINE ( 'NONE', #297, #105 ) ;
#325 = FACE_OUTER_BOUND ( 'NONE', #266, .T. ) ;
#326 = FACE_OUTER_BOUND ( 'NONE', #273, .T. ) ;
#327 = PLANE ( 'NONE',  #82 ) ;
#328 = CARTESIAN_POINT ( 'NONE',  ( -0.05366086171301338200, -0.7383475400000001400, -0.2951618402168830800 ) ) ;
#329 = CARTESIAN_POINT ( 'NONE',  ( 3.587178951288477100E-022, -0.5883475400000002200, -5.461637515423606300E-017 ) ) ;
#330 = CYLINDRICAL_SURFACE ( 'NONE', #63, 0.3299999999999997400 ) ;
#331 = DIRECTION ( 'NONE',  ( -1.870299865431272700E-031, -1.000000000000000000, -2.449164784857117100E-016 ) ) ;
#332 = FACE_OUTER_BOUND ( 'NONE', #276, .T. ) ;
#333 = DIRECTION ( 'NONE',  ( 0.1788695390433779100, -2.069581813382019200E-016, 0.9838728007229439200 ) ) ;
#334 = CARTESIAN_POINT ( 'NONE',  ( 0.05768542634148933500, -2.331273898332296000, 0.3172989782331486800 ) ) ;
#335 = DIRECTION ( 'NONE',  ( -1.870299865431272700E-031, -1.000000000000000000, -2.449164784857117100E-016 ) ) ;
#336 = PERSON_AND_ORGANIZATION ( #158, #65 ) ;
#337 = DIRECTION ( 'NONE',  ( 1.000000000000000000, 0.0000000000000000000, 0.0000000000000000000 ) ) ;
#338 = DIRECTION ( 'NONE',  ( 0.0000000000000000000, 0.0000000000000000000, 1.000000000000000000 ) ) ;
#339 = APPLICATION_PROTOCOL_DEFINITION ( 'international standard', 'config_control_design', 1994, #68 ) ;
#340 = SHAPE_DEFINITION_REPRESENTATION ( #4, #157 ) ;
#341 = MECHANICAL_CONTEXT ( 'NONE', #68, 'mechanical' ) ;
#342 =( NAMED_UNIT ( * ) SI_UNIT ( $, .STERADIAN. ) SOLID_ANGLE_UNIT ( ) );
#343 =( NAMED_UNIT ( * ) PLANE_ANGLE_UNIT ( ) SI_UNIT ( $, .RADIAN. ) );
#344 =( CONVERSION_BASED_UNIT ( 'INCH', #345 ) LENGTH_UNIT ( ) NAMED_UNIT ( #6 ) );
#345 = LENGTH_MEASURE_WITH_UNIT ( LENGTH_MEASURE( 0.02539999999999999900 ), #346 );
#346 =( LENGTH_UNIT ( ) NAMED_UNIT ( * ) SI_UNIT ( $, .METRE. ) );
#347 = CARTESIAN_POINT ( 'NONE',  ( 0.0000000000000000000, 0.0000000000000000000, 0.0000000000000000000 ) ) ;
#348 = CARTESIAN_POINT ( 'NONE',  ( 0.05902694788431467300, -0.7383475400000003600, 0.3246780242385711700 ) ) ;
#349 = CARTESIAN_POINT ( 'NONE',  ( -0.05366086171301334700, -0.4233475400000001300, -0.2951618402168829100 ) ) ;
#350 = CARTESIAN_POINT ( 'NONE',  ( -0.05768542634148936900, -0.5808475400000000500, -0.3172989782331491200 ) ) ;
#351 = CARTESIAN_POINT ( 'NONE',  ( 0.05366086171301332600, -0.4233475400000003000, 0.2951618402168829100 ) ) ;
#352 = CARTESIAN_POINT ( 'NONE',  ( 0.05366086171301332600, -0.7383475400000003600, 0.2951618402168828000 ) ) ;
#353 = LINE ( 'NONE', #334, #104 ) ;
#354 = CARTESIAN_POINT ( 'NONE',  ( -0.05902694788431468000, -0.5883475400000001100, -0.3246780242385712300 ) ) ;
#355 = CARTESIAN_POINT ( 'NONE',  ( 0.05768542634148932100, -0.5808475400000001600, 0.3172989782331490100 ) ) ;
#356 = CARTESIAN_POINT ( 'NONE',  ( -0.05768542634148936900, -0.3613475400000000800, -0.3172989782331491200 ) ) ;
#357 = CARTESIAN_POINT ( 'NONE',  ( 0.05902694788431466600, -0.5883475400000003400, 0.3246780242385711700 ) ) ;
#358 = CARTESIAN_POINT ( 'NONE',  ( -0.05902694788431470100, -0.7383475400000001400, -0.3246780242385713400 ) ) ;
ENDSEC;
END-ISO-10303-21;
