ISO-10303-21;
HEADER;
FILE_DESCRIPTION (( 'STEP AP203' ),
    '1' );
FILE_NAME ('A7300-1-WR.STEP',
    '2013-11-19T17:50:46',
    ( '' ),
    ( '' ),
    'SwSTEP 2.0',
    'SolidWorks 2012',
    '' );
FILE_SCHEMA (( 'CONFIG_CONTROL_DESIGN' ));
ENDSEC;

DATA;
#1 = ORIENTED_EDGE ( 'NONE', *, *, #352, .F. ) ;
#2 = ORIENTED_EDGE ( 'NONE', *, *, #325, .F. ) ;
#3 = DIRECTION ( 'NONE',  ( -0.0000000000000000000, -0.0000000000000000000, -1.000000000000000000 ) ) ;
#4 = CARTESIAN_POINT ( 'NONE',  ( 0.0000000000000000000, 0.0000000000000000000, 0.1086287128368767600 ) ) ;
#5 = CARTESIAN_POINT ( 'NONE',  ( 0.0000000000000000000, 0.0000000000000000000, 0.0000000000000000000 ) ) ;
#6 = CARTESIAN_POINT ( 'NONE',  ( 0.0000000000000000000, 0.0000000000000000000, 0.0000000000000000000 ) ) ;
#7 = PLANE ( 'NONE',  #321 ) ;
#8 = CARTESIAN_POINT ( 'NONE',  ( -0.005345904096558279900, 0.0000000000000000000, 0.09224620568251602800 ) ) ;
#9 = DIRECTION ( 'NONE',  ( -1.000000000000000000, 0.0000000000000000000, 0.0000000000000000000 ) ) ;
#10 = DIRECTION ( 'NONE',  ( -0.0000000000000000000, -0.0000000000000000000, -1.000000000000000000 ) ) ;
#11 = DIRECTION ( 'NONE',  ( -1.000000000000000000, 0.0000000000000000000, 0.0000000000000000000 ) ) ;
#12 = DIRECTION ( 'NONE',  ( -0.0000000000000000000, -0.0000000000000000000, -1.000000000000000000 ) ) ;
#13 = CARTESIAN_POINT ( 'NONE',  ( 0.0000000000000000000, 0.0000000000000000000, 0.0000000000000000000 ) ) ;
#14 = DIRECTION ( 'NONE',  ( -0.0000000000000000000, 0.0000000000000000000, -1.000000000000000000 ) ) ;
#15 = DIRECTION ( 'NONE',  ( -1.000000000000000000, 0.0000000000000000000, 0.0000000000000000000 ) ) ;
#16 = APPROVAL_DATE_TIME ( #60, #85 ) ;
#17 = DIRECTION ( 'NONE',  ( -0.0000000000000000000, -0.0000000000000000000, -1.000000000000000000 ) ) ;
#18 = CARTESIAN_POINT ( 'NONE',  ( 0.0000000000000000000, 0.0000000000000000000, 0.0000000000000000000 ) ) ;
#19 = CARTESIAN_POINT ( 'NONE',  ( 0.005345904096558289400, 6.546844340398833700E-019, 0.0000000000000000000 ) ) ;
#20 = EDGE_LOOP ( 'NONE', ( #195, #309, #206, #210 ) ) ;
#21 = EDGE_LOOP ( 'NONE', ( #193, #187, #188, #181 ) ) ;
#22 = EDGE_LOOP ( 'NONE', ( #190, #189 ) ) ;
#23 = EDGE_LOOP ( 'NONE', ( #201, #191, #205 ) ) ;
#24 = EDGE_LOOP ( 'NONE', ( #198, #200, #182, #202 ) ) ;
#25 = EDGE_LOOP ( 'NONE', ( #192, #196 ) ) ;
#26 = SHAPE_DEFINITION_REPRESENTATION ( #215, #63 ) ;
#27 = ORGANIZATION ( 'UNSPECIFIED', 'UNSPECIFIED', '' ) ;
#28 = PERSON_AND_ORGANIZATION ( #312, #27 ) ;
#29 = PERSON_AND_ORGANIZATION ( #312, #27 ) ;
#30 = APPROVAL_PERSON_ORGANIZATION ( #29, #78, #296 ) ;
#31 = COORDINATED_UNIVERSAL_TIME_OFFSET ( 5, 0, .BEHIND. ) ;
#32 = LOCAL_TIME ( 12, 50, 46.00000000000000000, #31 ) ;
#33 = CALENDAR_DATE ( 2013, 19, 11 ) ;
#34 = DATE_AND_TIME ( #33, #32 ) ;
#35 = APPROVAL_DATE_TIME ( #34, #78 ) ;
#36 = PERSON_AND_ORGANIZATION ( #312, #27 ) ;
#37 = COORDINATED_UNIVERSAL_TIME_OFFSET ( 5, 0, .BEHIND. ) ;
#38 = LOCAL_TIME ( 12, 50, 46.00000000000000000, #37 ) ;
#39 = CALENDAR_DATE ( 2013, 19, 11 ) ;
#40 = DATE_AND_TIME ( #39, #38 ) ;
#41 = PERSON_AND_ORGANIZATION ( #312, #27 ) ;
#42 = APPROVAL_PERSON_ORGANIZATION ( #41, #82, #300 ) ;
#43 = COORDINATED_UNIVERSAL_TIME_OFFSET ( 5, 0, .BEHIND. ) ;
#44 = LOCAL_TIME ( 12, 50, 46.00000000000000000, #43 ) ;
#45 = CALENDAR_DATE ( 2013, 19, 11 ) ;
#46 = DATE_AND_TIME ( #45, #44 ) ;
#47 = APPROVAL_DATE_TIME ( #46, #82 ) ;
#48 = PERSON_AND_ORGANIZATION ( #312, #27 ) ;
#49 = PERSON_AND_ORGANIZATION ( #312, #27 ) ;
#50 = PERSON_AND_ORGANIZATION ( #312, #27 ) ;
#51 = COORDINATED_UNIVERSAL_TIME_OFFSET ( 5, 0, .BEHIND. ) ;
#52 = LOCAL_TIME ( 12, 50, 46.00000000000000000, #51 ) ;
#53 = CALENDAR_DATE ( 2013, 19, 11 ) ;
#54 = DATE_AND_TIME ( #53, #52 ) ;
#55 = PERSON_AND_ORGANIZATION ( #312, #27 ) ;
#56 = APPROVAL_PERSON_ORGANIZATION ( #55, #85, #307 ) ;
#57 = COORDINATED_UNIVERSAL_TIME_OFFSET ( 5, 0, .BEHIND. ) ;
#58 = LOCAL_TIME ( 12, 50, 46.00000000000000000, #57 ) ;
#59 = CALENDAR_DATE ( 2013, 19, 11 ) ;
#60 = DATE_AND_TIME ( #59, #58 ) ;
#61 = MANIFOLD_SOLID_BREP ( 'Revolve1', #207 ) ;
#62 = UNCERTAINTY_MEASURE_WITH_UNIT (LENGTH_MEASURE( 1.000000000000000100E-005 ), #284, 'distance_accuracy_value', 'NONE');
#63 = ADVANCED_BREP_SHAPE_REPRESENTATION ( 'A7300-1-WR', ( #61, #64, #317 ), #339 ) ;
#64 = MANIFOLD_SOLID_BREP ( 'Revolve2', #66 ) ;
#65 = EDGE_LOOP ( 'NONE', ( #183, #180 ) ) ;
#66 = CLOSED_SHELL ( 'NONE', ( #134, #125, #129, #132, #131, #130 ) ) ;
#67 = EDGE_LOOP ( 'NONE', ( #218, #316 ) ) ;
#68 = EDGE_LOOP ( 'NONE', ( #185, #311, #194, #1 ) ) ;
#69 = CARTESIAN_POINT ( 'NONE',  ( 0.005345904096558279900, 6.546844340398825000E-019, 0.09224620568251602800 ) ) ;
#70 = DIRECTION ( 'NONE',  ( -1.000000000000000000, 0.0000000000000000000, 0.0000000000000000000 ) ) ;
#71 = CARTESIAN_POINT ( 'NONE',  ( 0.0000000000000000000, 0.0000000000000000000, 0.0000000000000000000 ) ) ;
#72 = DIRECTION ( 'NONE',  ( -0.0000000000000000000, -0.0000000000000000000, -1.000000000000000000 ) ) ;
#73 = DIRECTION ( 'NONE',  ( -1.000000000000000000, 0.0000000000000000000, 0.0000000000000000000 ) ) ;
#74 = CARTESIAN_POINT ( 'NONE',  ( 0.0000000000000000000, 0.0000000000000000000, 0.0000000000000000000 ) ) ;
#75 = DIRECTION ( 'NONE',  ( -0.0000000000000000000, -0.0000000000000000000, -1.000000000000000000 ) ) ;
#76 = CC_DESIGN_PERSON_AND_ORGANIZATION_ASSIGNMENT ( #28, #292, ( #313 ) ) ;
#77 = PRODUCT_DEFINITION ( 'UNKNOWN', '', #87, #216 ) ;
#78 = APPROVAL ( #295, 'UNSPECIFIED' ) ;
#79 = CC_DESIGN_APPROVAL ( #82, ( #87 ) ) ;
#80 = SECURITY_CLASSIFICATION ( '', '', #303 ) ;
#81 = CC_DESIGN_PERSON_AND_ORGANIZATION_ASSIGNMENT ( #48, #301, ( #87 ) ) ;
#82 = APPROVAL ( #299, 'UNSPECIFIED' ) ;
#83 = CC_DESIGN_DATE_AND_TIME_ASSIGNMENT ( #54, #305, ( #80 ) ) ;
#84 = CC_DESIGN_PERSON_AND_ORGANIZATION_ASSIGNMENT ( #50, #304, ( #80 ) ) ;
#85 = APPROVAL ( #306, 'UNSPECIFIED' ) ;
#86 = CC_DESIGN_APPROVAL ( #85, ( #80 ) ) ;
#87 = PRODUCT_DEFINITION_FORMATION_WITH_SPECIFIED_SOURCE ( 'ANY', '', #313, .NOT_KNOWN. ) ;
#88 = CC_DESIGN_SECURITY_CLASSIFICATION ( #80, ( #87 ) ) ;
#89 = PRODUCT_RELATED_PRODUCT_CATEGORY ( 'detail', '', ( #313 ) ) ;
#90 = CC_DESIGN_PERSON_AND_ORGANIZATION_ASSIGNMENT ( #49, #302, ( #87 ) ) ;
#91 = CC_DESIGN_DATE_AND_TIME_ASSIGNMENT ( #40, #298, ( #77 ) ) ;
#92 = CC_DESIGN_APPROVAL ( #78, ( #77 ) ) ;
#93 = CC_DESIGN_PERSON_AND_ORGANIZATION_ASSIGNMENT ( #36, #297, ( #77 ) ) ;
#94 = CIRCLE ( 'NONE', #320, 0.005000000000000000100 ) ;
#95 = LINE ( 'NONE', #247, #102 ) ;
#96 = LINE ( 'NONE', #237, #97 ) ;
#97 = VECTOR ( 'NONE', #241, 39.37007874015748100 ) ;
#98 = CIRCLE ( 'NONE', #336, 0.005345904096558290300 ) ;
#99 = CIRCLE ( 'NONE', #318, 0.005345904096558279900 ) ;
#100 = CIRCLE ( 'NONE', #347, 0.03289599500414629200 ) ;
#101 = CIRCLE ( 'NONE', #349, 0.005000000000000000100 ) ;
#102 = VECTOR ( 'NONE', #242, 39.37007874015748100 ) ;
#103 = CIRCLE ( 'NONE', #348, 0.03289599500414629200 ) ;
#104 = CIRCLE ( 'NONE', #346, 0.005000000000000000100 ) ;
#105 = LINE ( 'NONE', #261, #108 ) ;
#106 = LINE ( 'NONE', #266, #111 ) ;
#107 = CIRCLE ( 'NONE', #345, 0.01000000000000000000 ) ;
#108 = VECTOR ( 'NONE', #251, 39.37007874015748100 ) ;
#109 = CIRCLE ( 'NONE', #343, 0.005345904096558290300 ) ;
#110 = LINE ( 'NONE', #270, #112 ) ;
#111 = VECTOR ( 'NONE', #246, 39.37007874015748100 ) ;
#112 = VECTOR ( 'NONE', #272, 39.37007874015748100 ) ;
#113 = LINE ( 'NONE', #271, #115 ) ;
#114 = CIRCLE ( 'NONE', #341, 0.01000000000000000000 ) ;
#115 = VECTOR ( 'NONE', #265, 39.37007874015748100 ) ;
#116 = CIRCLE ( 'NONE', #340, 0.01000000000000000000 ) ;
#117 = LENGTH_MEASURE_WITH_UNIT ( LENGTH_MEASURE( 0.02539999999999999900 ), #280 );
#118 = CARTESIAN_POINT ( 'NONE',  ( -0.005345904096558290300, 0.0000000000000000000, 0.0000000000000000000 ) ) ;
#119 = DIRECTION ( 'NONE',  ( -1.000000000000000000, 0.0000000000000000000, 0.0000000000000000000 ) ) ;
#120 = CARTESIAN_POINT ( 'NONE',  ( -0.005000000000000000100, 0.0000000000000000000, 0.0000000000000000000 ) ) ;
#121 = EDGE_LOOP ( 'NONE', ( #308, #366, #197, #208 ) ) ;
#122 = EDGE_LOOP ( 'NONE', ( #203, #199, #209, #204 ) ) ;
#123 = ADVANCED_FACE ( 'NONE', ( #155 ), #7, .T. ) ;
#124 = ADVANCED_FACE ( 'NONE', ( #156 ), #161, .T. ) ;
#125 = ADVANCED_FACE ( 'NONE', ( #159 ), #163, .T. ) ;
#126 = ADVANCED_FACE ( 'NONE', ( #157 ), #160, .T. ) ;
#127 = ADVANCED_FACE ( 'NONE', ( #165 ), #158, .T. ) ;
#128 = DIMENSIONAL_EXPONENTS ( 1.000000000000000000, 0.0000000000000000000, 0.0000000000000000000, 0.0000000000000000000, 0.0000000000000000000, 0.0000000000000000000, 0.0000000000000000000 ) ;
#129 = ADVANCED_FACE ( 'NONE', ( #167, #164 ), #143, .T. ) ;
#130 = ADVANCED_FACE ( 'NONE', ( #166 ), #170, .F. ) ;
#131 = ADVANCED_FACE ( 'NONE', ( #168, #171 ), #225, .T. ) ;
#132 = ADVANCED_FACE ( 'NONE', ( #162 ), #174, .T. ) ;
#133 = ADVANCED_FACE ( 'NONE', ( #172 ), #176, .T. ) ;
#134 = ADVANCED_FACE ( 'NONE', ( #169 ), #178, .F. ) ;
#135 = CARTESIAN_POINT ( 'NONE',  ( 0.0000000000000000000, 0.0000000000000000000, 0.1086287128368767600 ) ) ;
#136 = DIRECTION ( 'NONE',  ( -0.0000000000000000000, -0.0000000000000000000, -1.000000000000000000 ) ) ;
#137 = DIRECTION ( 'NONE',  ( -1.000000000000000000, 0.0000000000000000000, 0.0000000000000000000 ) ) ;
#138 = DIRECTION ( 'NONE',  ( -0.0000000000000000000, 0.0000000000000000000, -1.000000000000000000 ) ) ;
#139 = DIRECTION ( 'NONE',  ( -1.000000000000000000, 0.0000000000000000000, 0.0000000000000000000 ) ) ;
#140 = CARTESIAN_POINT ( 'NONE',  ( 0.0000000000000000000, 0.005345904096558290300, 0.0000000000000000000 ) ) ;
#141 = DIRECTION ( 'NONE',  ( -1.000000000000000000, 0.0000000000000000000, 0.0000000000000000000 ) ) ;
#142 = CARTESIAN_POINT ( 'NONE',  ( 0.005000000000000000100, 6.123233995736766900E-019, 0.1387676933219367000 ) ) ;
#143 = PLANE ( 'NONE',  #360 ) ;
#144 = CARTESIAN_POINT ( 'NONE',  ( -0.01000000000000000000, 0.0000000000000000000, 0.09224620568251602800 ) ) ;
#145 = VERTEX_POINT ( 'NONE', #120 ) ;
#146 = VERTEX_POINT ( 'NONE', #315 ) ;
#147 = VERTEX_POINT ( 'NONE', #314 ) ;
#148 = VERTEX_POINT ( 'NONE', #142 ) ;
#149 = VERTEX_POINT ( 'NONE', #144 ) ;
#150 = VERTEX_POINT ( 'NONE', #221 ) ;
#151 = VERTEX_POINT ( 'NONE', #19 ) ;
#152 = VERTEX_POINT ( 'NONE', #118 ) ;
#153 = VERTEX_POINT ( 'NONE', #223 ) ;
#154 = VERTEX_POINT ( 'NONE', #310 ) ;
#155 = FACE_OUTER_BOUND ( 'NONE', #364, .T. ) ;
#156 = FACE_OUTER_BOUND ( 'NONE', #122, .T. ) ;
#157 = FACE_OUTER_BOUND ( 'NONE', #365, .T. ) ;
#158 = TOROIDAL_SURFACE ( 'NONE', #361, -0.008182880665241365500, 0.03289599500414629200 ) ;
#159 = FACE_OUTER_BOUND ( 'NONE', #21, .T. ) ;
#160 = TOROIDAL_SURFACE ( 'NONE', #363, -0.008182880665241365500, 0.03289599500414629200 ) ;
#161 = CYLINDRICAL_SURFACE ( 'NONE', #322, 0.005000000000000000100 ) ;
#162 = FACE_OUTER_BOUND ( 'NONE', #68, .T. ) ;
#163 = CYLINDRICAL_SURFACE ( 'NONE', #342, 0.01000000000000000000 ) ;
#164 = FACE_BOUND ( 'NONE', #25, .T. ) ;
#165 = FACE_OUTER_BOUND ( 'NONE', #23, .T. ) ;
#166 = FACE_OUTER_BOUND ( 'NONE', #20, .T. ) ;
#167 = FACE_OUTER_BOUND ( 'NONE', #22, .T. ) ;
#168 = FACE_BOUND ( 'NONE', #67, .T. ) ;
#169 = FACE_OUTER_BOUND ( 'NONE', #24, .T. ) ;
#170 = CYLINDRICAL_SURFACE ( 'NONE', #359, 0.005345904096558285100 ) ;
#171 = FACE_OUTER_BOUND ( 'NONE', #65, .T. ) ;
#172 = FACE_OUTER_BOUND ( 'NONE', #121, .T. ) ;
#173 = CIRCLE ( 'NONE', #358, 0.005345904096558279900 ) ;
#174 = CYLINDRICAL_SURFACE ( 'NONE', #356, 0.01000000000000000000 ) ;
#175 = CIRCLE ( 'NONE', #362, 0.01000000000000000000 ) ;
#176 = CYLINDRICAL_SURFACE ( 'NONE', #354, 0.005000000000000000100 ) ;
#177 = CIRCLE ( 'NONE', #344, 0.005000000000000000100 ) ;
#178 = CYLINDRICAL_SURFACE ( 'NONE', #355, 0.005345904096558285100 ) ;
#179 = ORIENTED_EDGE ( 'NONE', *, *, #331, .F. ) ;
#180 = ORIENTED_EDGE ( 'NONE', *, *, #323, .F. ) ;
#181 = ORIENTED_EDGE ( 'NONE', *, *, #351, .F. ) ;
#182 = ORIENTED_EDGE ( 'NONE', *, *, #328, .T. ) ;
#183 = ORIENTED_EDGE ( 'NONE', *, *, #353, .F. ) ;
#184 = ORIENTED_EDGE ( 'NONE', *, *, #332, .T. ) ;
#185 = ORIENTED_EDGE ( 'NONE', *, *, #326, .F. ) ;
#186 = ORIENTED_EDGE ( 'NONE', *, *, #330, .T. ) ;
#187 = ORIENTED_EDGE ( 'NONE', *, *, #326, .T. ) ;
#188 = ORIENTED_EDGE ( 'NONE', *, *, #335, .F. ) ;
#189 = ORIENTED_EDGE ( 'NONE', *, *, #352, .T. ) ;
#190 = ORIENTED_EDGE ( 'NONE', *, *, #335, .T. ) ;
#191 = ORIENTED_EDGE ( 'NONE', *, *, #331, .T. ) ;
#192 = ORIENTED_EDGE ( 'NONE', *, *, #350, .F. ) ;
#193 = ORIENTED_EDGE ( 'NONE', *, *, #353, .T. ) ;
#194 = ORIENTED_EDGE ( 'NONE', *, *, #351, .T. ) ;
#195 = ORIENTED_EDGE ( 'NONE', *, *, #329, .F. ) ;
#196 = ORIENTED_EDGE ( 'NONE', *, *, #328, .F. ) ;
#197 = ORIENTED_EDGE ( 'NONE', *, *, #334, .T. ) ;
#198 = ORIENTED_EDGE ( 'NONE', *, *, #327, .F. ) ;
#199 = ORIENTED_EDGE ( 'NONE', *, *, #337, .T. ) ;
#200 = ORIENTED_EDGE ( 'NONE', *, *, #329, .T. ) ;
#201 = ORIENTED_EDGE ( 'NONE', *, *, #332, .F. ) ;
#202 = ORIENTED_EDGE ( 'NONE', *, *, #338, .F. ) ;
#203 = ORIENTED_EDGE ( 'NONE', *, *, #333, .T. ) ;
#204 = ORIENTED_EDGE ( 'NONE', *, *, #334, .F. ) ;
#205 = ORIENTED_EDGE ( 'NONE', *, *, #333, .F. ) ;
#206 = ORIENTED_EDGE ( 'NONE', *, *, #338, .T. ) ;
#207 = CLOSED_SHELL ( 'NONE', ( #124, #127, #123, #126, #133 ) ) ;
#208 = ORIENTED_EDGE ( 'NONE', *, *, #330, .F. ) ;
#209 = ORIENTED_EDGE ( 'NONE', *, *, #324, .F. ) ;
#210 = ORIENTED_EDGE ( 'NONE', *, *, #350, .T. ) ;
#211 = ORIENTED_EDGE ( 'NONE', *, *, #324, .T. ) ;
#212 = VERTEX_POINT ( 'NONE', #8 ) ;
#213 = VERTEX_POINT ( 'NONE', #69 ) ;
#214 = VERTEX_POINT ( 'NONE', #217 ) ;
#215 = PRODUCT_DEFINITION_SHAPE ( 'NONE', 'NONE',  #77 ) ;
#216 = DESIGN_CONTEXT ( 'detailed design', #293, 'design' ) ;
#217 = CARTESIAN_POINT ( 'NONE',  ( -0.005000000000000000100, 0.0000000000000000000, 0.1387676933219367000 ) ) ;
#218 = ORIENTED_EDGE ( 'NONE', *, *, #319, .T. ) ;
#219 = CARTESIAN_POINT ( 'NONE',  ( 0.0000000000000000000, 0.0000000000000000000, 0.0000000000000000000 ) ) ;
#220 = CARTESIAN_POINT ( 'NONE',  ( 0.0000000000000000000, 0.005345904096558279900, 0.09224620568251602800 ) ) ;
#221 = CARTESIAN_POINT ( 'NONE',  ( 0.01000000000000000000, 1.224646799147353400E-018, 0.09224620568251602800 ) ) ;
#222 = DIRECTION ( 'NONE',  ( 0.0000000000000000000, 0.0000000000000000000, 1.000000000000000000 ) ) ;
#223 = CARTESIAN_POINT ( 'NONE',  ( -0.01000000000000000000, 0.0000000000000000000, 0.0000000000000000000 ) ) ;
#224 = DIRECTION ( 'NONE',  ( -1.000000000000000000, 0.0000000000000000000, 0.0000000000000000000 ) ) ;
#225 = PLANE ( 'NONE',  #357 ) ;
#226 = DIRECTION ( 'NONE',  ( 1.000000000000000000, 0.0000000000000000000, -0.0000000000000000000 ) ) ;
#227 = DIRECTION ( 'NONE',  ( -0.0000000000000000000, -0.0000000000000000000, -1.000000000000000000 ) ) ;
#228 = CARTESIAN_POINT ( 'NONE',  ( 0.0000000000000000000, 0.0000000000000000000, 0.09224620568251602800 ) ) ;
#229 = DIRECTION ( 'NONE',  ( -0.0000000000000000000, -0.0000000000000000000, -1.000000000000000000 ) ) ;
#230 = DIRECTION ( 'NONE',  ( -1.000000000000000000, 0.0000000000000000000, 0.0000000000000000000 ) ) ;
#231 = CARTESIAN_POINT ( 'NONE',  ( 0.0000000000000000000, 0.0000000000000000000, 0.09224620568251602800 ) ) ;
#232 = DIRECTION ( 'NONE',  ( -0.0000000000000000000, -0.0000000000000000000, -1.000000000000000000 ) ) ;
#233 = DIRECTION ( 'NONE',  ( -1.000000000000000000, 0.0000000000000000000, 0.0000000000000000000 ) ) ;
#234 = CARTESIAN_POINT ( 'NONE',  ( 0.0000000000000000000, 0.0000000000000000000, 0.0000000000000000000 ) ) ;
#235 = DIRECTION ( 'NONE',  ( -0.0000000000000000000, -0.0000000000000000000, -1.000000000000000000 ) ) ;
#236 = DIRECTION ( 'NONE',  ( -1.000000000000000000, 0.0000000000000000000, 0.0000000000000000000 ) ) ;
#237 = CARTESIAN_POINT ( 'NONE',  ( 0.01000000000000000000, 1.224646799147353400E-018, 0.0000000000000000000 ) ) ;
#238 = CARTESIAN_POINT ( 'NONE',  ( 0.0000000000000000000, 0.0000000000000000000, 0.1387676933219367000 ) ) ;
#239 = DIRECTION ( 'NONE',  ( -0.0000000000000000000, -0.0000000000000000000, -1.000000000000000000 ) ) ;
#240 = DIRECTION ( 'NONE',  ( -1.000000000000000000, 0.0000000000000000000, 0.0000000000000000000 ) ) ;
#241 = DIRECTION ( 'NONE',  ( -0.0000000000000000000, -0.0000000000000000000, -1.000000000000000000 ) ) ;
#242 = DIRECTION ( 'NONE',  ( -0.0000000000000000000, -0.0000000000000000000, -1.000000000000000000 ) ) ;
#243 = CARTESIAN_POINT ( 'NONE',  ( 0.0000000000000000000, 0.0000000000000000000, 0.09224620568251602800 ) ) ;
#244 = DIRECTION ( 'NONE',  ( -0.0000000000000000000, -0.0000000000000000000, -1.000000000000000000 ) ) ;
#245 = DIRECTION ( 'NONE',  ( -1.000000000000000000, 0.0000000000000000000, 0.0000000000000000000 ) ) ;
#246 = DIRECTION ( 'NONE',  ( -0.0000000000000000000, -0.0000000000000000000, -1.000000000000000000 ) ) ;
#247 = CARTESIAN_POINT ( 'NONE',  ( 0.005345904096558285100, 6.546844340398827900E-019, 0.0000000000000000000 ) ) ;
#248 = CARTESIAN_POINT ( 'NONE',  ( 0.0000000000000000000, 0.0000000000000000000, 0.0000000000000000000 ) ) ;
#249 = DIRECTION ( 'NONE',  ( -0.0000000000000000000, -0.0000000000000000000, -1.000000000000000000 ) ) ;
#250 = DIRECTION ( 'NONE',  ( -1.000000000000000000, 0.0000000000000000000, 0.0000000000000000000 ) ) ;
#251 = DIRECTION ( 'NONE',  ( -0.0000000000000000000, -0.0000000000000000000, -1.000000000000000000 ) ) ;
#252 = CARTESIAN_POINT ( 'NONE',  ( 0.0000000000000000000, 0.0000000000000000000, 0.0000000000000000000 ) ) ;
#253 = DIRECTION ( 'NONE',  ( -0.0000000000000000000, -0.0000000000000000000, -1.000000000000000000 ) ) ;
#254 = DIRECTION ( 'NONE',  ( -1.000000000000000000, 0.0000000000000000000, 0.0000000000000000000 ) ) ;
#255 = CARTESIAN_POINT ( 'NONE',  ( -0.008182880665241365500, -1.002113861449260200E-018, 0.1086287128368767600 ) ) ;
#256 = DIRECTION ( 'NONE',  ( -1.224646799147353200E-016, 1.000000000000000000, 0.0000000000000000000 ) ) ;
#257 = DIRECTION ( 'NONE',  ( -1.000000000000000000, -1.224646799147353200E-016, 0.0000000000000000000 ) ) ;
#258 = CARTESIAN_POINT ( 'NONE',  ( 0.008182880665241365500, 0.0000000000000000000, 0.1086287128368767600 ) ) ;
#259 = DIRECTION ( 'NONE',  ( 0.0000000000000000000, -1.000000000000000000, 0.0000000000000000000 ) ) ;
#260 = DIRECTION ( 'NONE',  ( 0.0000000000000000000, 0.0000000000000000000, -1.000000000000000000 ) ) ;
#261 = CARTESIAN_POINT ( 'NONE',  ( -0.005000000000000000100, 0.0000000000000000000, 0.0000000000000000000 ) ) ;
#262 = CARTESIAN_POINT ( 'NONE',  ( 0.0000000000000000000, 0.0000000000000000000, 0.1387676933219367000 ) ) ;
#263 = DIRECTION ( 'NONE',  ( -0.0000000000000000000, -0.0000000000000000000, -1.000000000000000000 ) ) ;
#264 = DIRECTION ( 'NONE',  ( -1.000000000000000000, 0.0000000000000000000, 0.0000000000000000000 ) ) ;
#265 = DIRECTION ( 'NONE',  ( -0.0000000000000000000, -0.0000000000000000000, -1.000000000000000000 ) ) ;
#266 = CARTESIAN_POINT ( 'NONE',  ( 0.005000000000000000100, 6.123233995736766900E-019, 0.0000000000000000000 ) ) ;
#267 = CARTESIAN_POINT ( 'NONE',  ( 0.0000000000000000000, 0.0000000000000000000, 0.0000000000000000000 ) ) ;
#268 = DIRECTION ( 'NONE',  ( -0.0000000000000000000, -0.0000000000000000000, -1.000000000000000000 ) ) ;
#269 = DIRECTION ( 'NONE',  ( -1.000000000000000000, 0.0000000000000000000, 0.0000000000000000000 ) ) ;
#270 = CARTESIAN_POINT ( 'NONE',  ( -0.005345904096558285100, 0.0000000000000000000, 0.0000000000000000000 ) ) ;
#271 = CARTESIAN_POINT ( 'NONE',  ( -0.01000000000000000000, 0.0000000000000000000, 0.0000000000000000000 ) ) ;
#272 = DIRECTION ( 'NONE',  ( -0.0000000000000000000, -0.0000000000000000000, -1.000000000000000000 ) ) ;
#273 = CARTESIAN_POINT ( 'NONE',  ( 0.0000000000000000000, 0.0000000000000000000, 0.0000000000000000000 ) ) ;
#274 = DIRECTION ( 'NONE',  ( -0.0000000000000000000, -0.0000000000000000000, -1.000000000000000000 ) ) ;
#275 = DIRECTION ( 'NONE',  ( -1.000000000000000000, 0.0000000000000000000, 0.0000000000000000000 ) ) ;
#276 = CARTESIAN_POINT ( 'NONE',  ( 0.0000000000000000000, 0.0000000000000000000, 0.0000000000000000000 ) ) ;
#277 = DIRECTION ( 'NONE',  ( -0.0000000000000000000, -0.0000000000000000000, -1.000000000000000000 ) ) ;
#278 = DIRECTION ( 'NONE',  ( -1.000000000000000000, 0.0000000000000000000, 0.0000000000000000000 ) ) ;
#279 = CARTESIAN_POINT ( 'NONE',  ( 0.0000000000000000000, 0.0000000000000000000, 0.0000000000000000000 ) ) ;
#280 =( LENGTH_UNIT ( ) NAMED_UNIT ( * ) SI_UNIT ( $, .METRE. ) );
#281 = CARTESIAN_POINT ( 'NONE',  ( 0.0000000000000000000, 0.0000000000000000000, 0.09224620568251602800 ) ) ;
#282 = DIRECTION ( 'NONE',  ( -0.0000000000000000000, -0.0000000000000000000, -1.000000000000000000 ) ) ;
#283 = DIRECTION ( 'NONE',  ( -1.000000000000000000, 0.0000000000000000000, 0.0000000000000000000 ) ) ;
#284 =( CONVERSION_BASED_UNIT ( 'INCH', #117 ) LENGTH_UNIT ( ) NAMED_UNIT ( #128 ) );
#285 =( NAMED_UNIT ( * ) PLANE_ANGLE_UNIT ( ) SI_UNIT ( $, .RADIAN. ) );
#286 =( NAMED_UNIT ( * ) SI_UNIT ( $, .STERADIAN. ) SOLID_ANGLE_UNIT ( ) );
#287 = APPLICATION_PROTOCOL_DEFINITION ( 'international standard', 'config_control_design', 1994, #288 ) ;
#288 = APPLICATION_CONTEXT ( 'configuration controlled 3d designs of mechanical parts and assemblies' ) ;
#289 = DIRECTION ( 'NONE',  ( 0.0000000000000000000, 0.0000000000000000000, 1.000000000000000000 ) ) ;
#290 = DIRECTION ( 'NONE',  ( 1.000000000000000000, 0.0000000000000000000, 0.0000000000000000000 ) ) ;
#291 = MECHANICAL_CONTEXT ( 'NONE', #288, 'mechanical' ) ;
#292 = PERSON_AND_ORGANIZATION_ROLE ( 'design_owner' ) ;
#293 = APPLICATION_CONTEXT ( 'configuration controlled 3d designs of mechanical parts and assemblies' ) ;
#294 = APPLICATION_PROTOCOL_DEFINITION ( 'international standard', 'config_control_design', 1994, #293 ) ;
#295 = APPROVAL_STATUS ( 'not_yet_approved' ) ;
#296 = APPROVAL_ROLE ( '' ) ;
#297 = PERSON_AND_ORGANIZATION_ROLE ( 'creator' ) ;
#298 = DATE_TIME_ROLE ( 'creation_date' ) ;
#299 = APPROVAL_STATUS ( 'not_yet_approved' ) ;
#300 = APPROVAL_ROLE ( '' ) ;
#301 = PERSON_AND_ORGANIZATION_ROLE ( 'creator' ) ;
#302 = PERSON_AND_ORGANIZATION_ROLE ( 'design_supplier' ) ;
#303 = SECURITY_CLASSIFICATION_LEVEL ( 'unclassified' ) ;
#304 = PERSON_AND_ORGANIZATION_ROLE ( 'classification_officer' ) ;
#305 = DATE_TIME_ROLE ( 'classification_date' ) ;
#306 = APPROVAL_STATUS ( 'not_yet_approved' ) ;
#307 = APPROVAL_ROLE ( '' ) ;
#308 = ORIENTED_EDGE ( 'NONE', *, *, #337, .F. ) ;
#309 = ORIENTED_EDGE ( 'NONE', *, *, #319, .F. ) ;
#310 = CARTESIAN_POINT ( 'NONE',  ( 0.01000000000000000000, 1.224646799147353400E-018, 0.0000000000000000000 ) ) ;
#311 = ORIENTED_EDGE ( 'NONE', *, *, #323, .T. ) ;
#312 = PERSON ( 'UNSPECIFIED', 'UNSPECIFIED', 'UNSPECIFIED', ('UNSPECIFIED'), ('UNSPECIFIED'), ('UNSPECIFIED') ) ;
#313 = PRODUCT ( 'A7300-1-WR', 'A7300-1-WR', '', ( #291 ) ) ;
#314 = CARTESIAN_POINT ( 'NONE',  ( 0.005000000000000000100, 6.123233995736766900E-019, 0.0000000000000000000 ) ) ;
#315 = CARTESIAN_POINT ( 'NONE',  ( 0.0000000000000000000, 0.0000000000000000000, 0.1404907113826559800 ) ) ;
#316 = ORIENTED_EDGE ( 'NONE', *, *, #327, .T. ) ;
#317 = AXIS2_PLACEMENT_3D ( 'NONE', #279, #289, #290 ) ;
#318 = AXIS2_PLACEMENT_3D ( 'NONE', #243, #244, #245 ) ;
#319 = EDGE_CURVE ( 'NONE', #212, #213, #173, .T. ) ;
#320 = AXIS2_PLACEMENT_3D ( 'NONE', #238, #239, #240 ) ;
#321 = AXIS2_PLACEMENT_3D ( 'NONE', #5, #14, #9 ) ;
#322 = AXIS2_PLACEMENT_3D ( 'NONE', #13, #3, #11 ) ;
#323 = EDGE_CURVE ( 'NONE', #150, #149, #175, .T. ) ;
#324 = EDGE_CURVE ( 'NONE', #145, #147, #177, .T. ) ;
#325 = EDGE_CURVE ( 'NONE', #148, #214, #94, .T. ) ;
#326 = EDGE_CURVE ( 'NONE', #150, #154, #96, .T. ) ;
#327 = EDGE_CURVE ( 'NONE', #213, #212, #99, .T. ) ;
#328 = EDGE_CURVE ( 'NONE', #151, #152, #98, .T. ) ;
#329 = EDGE_CURVE ( 'NONE', #213, #151, #95, .T. ) ;
#330 = EDGE_CURVE ( 'NONE', #147, #145, #101, .T. ) ;
#331 = EDGE_CURVE ( 'NONE', #146, #148, #103, .T. ) ;
#332 = EDGE_CURVE ( 'NONE', #146, #214, #100, .T. ) ;
#333 = EDGE_CURVE ( 'NONE', #214, #148, #104, .T. ) ;
#334 = EDGE_CURVE ( 'NONE', #214, #145, #105, .T. ) ;
#335 = EDGE_CURVE ( 'NONE', #153, #154, #107, .T. ) ;
#336 = AXIS2_PLACEMENT_3D ( 'NONE', #248, #249, #250 ) ;
#337 = EDGE_CURVE ( 'NONE', #148, #147, #106, .T. ) ;
#338 = EDGE_CURVE ( 'NONE', #212, #152, #110, .T. ) ;
#339 =( GEOMETRIC_REPRESENTATION_CONTEXT ( 3 ) GLOBAL_UNCERTAINTY_ASSIGNED_CONTEXT ( ( #62 ) ) GLOBAL_UNIT_ASSIGNED_CONTEXT ( ( #284, #285, #286 ) ) REPRESENTATION_CONTEXT ( 'NONE', 'WORKASPACE' ) );
#340 = AXIS2_PLACEMENT_3D ( 'NONE', #281, #282, #283 ) ;
#341 = AXIS2_PLACEMENT_3D ( 'NONE', #276, #277, #278 ) ;
#342 = AXIS2_PLACEMENT_3D ( 'NONE', #6, #10, #15 ) ;
#343 = AXIS2_PLACEMENT_3D ( 'NONE', #273, #274, #275 ) ;
#344 = AXIS2_PLACEMENT_3D ( 'NONE', #234, #235, #236 ) ;
#345 = AXIS2_PLACEMENT_3D ( 'NONE', #267, #268, #269 ) ;
#346 = AXIS2_PLACEMENT_3D ( 'NONE', #262, #263, #264 ) ;
#347 = AXIS2_PLACEMENT_3D ( 'NONE', #258, #259, #260 ) ;
#348 = AXIS2_PLACEMENT_3D ( 'NONE', #255, #256, #257 ) ;
#349 = AXIS2_PLACEMENT_3D ( 'NONE', #252, #253, #254 ) ;
#350 = EDGE_CURVE ( 'NONE', #152, #151, #109, .T. ) ;
#351 = EDGE_CURVE ( 'NONE', #149, #153, #113, .T. ) ;
#352 = EDGE_CURVE ( 'NONE', #154, #153, #114, .T. ) ;
#353 = EDGE_CURVE ( 'NONE', #149, #150, #116, .T. ) ;
#354 = AXIS2_PLACEMENT_3D ( 'NONE', #71, #75, #70 ) ;
#355 = AXIS2_PLACEMENT_3D ( 'NONE', #18, #17, #119 ) ;
#356 = AXIS2_PLACEMENT_3D ( 'NONE', #74, #72, #73 ) ;
#357 = AXIS2_PLACEMENT_3D ( 'NONE', #220, #222, #226 ) ;
#358 = AXIS2_PLACEMENT_3D ( 'NONE', #228, #229, #230 ) ;
#359 = AXIS2_PLACEMENT_3D ( 'NONE', #219, #227, #224 ) ;
#360 = AXIS2_PLACEMENT_3D ( 'NONE', #140, #138, #141 ) ;
#361 = AXIS2_PLACEMENT_3D ( 'NONE', #135, #136, #139 ) ;
#362 = AXIS2_PLACEMENT_3D ( 'NONE', #231, #232, #233 ) ;
#363 = AXIS2_PLACEMENT_3D ( 'NONE', #4, #12, #137 ) ;
#364 = EDGE_LOOP ( 'NONE', ( #211, #186 ) ) ;
#365 = EDGE_LOOP ( 'NONE', ( #179, #184, #2 ) ) ;
#366 = ORIENTED_EDGE ( 'NONE', *, *, #325, .T. ) ;
ENDSEC;
END-ISO-10303-21;
