ISO-10303-21;
HEADER;
FILE_DESCRIPTION (( 'STEP AP203' ),
    '1' );
FILE_NAME ('A1429-6-C.STEP',
    '2013-11-12T13:47:45',
    ( '' ),
    ( '' ),
    'SwSTEP 2.0',
    'SolidWorks 2012',
    '' );
FILE_SCHEMA (( 'CONFIG_CONTROL_DESIGN' ));
ENDSEC;

DATA;
#1 = ADVANCED_BREP_SHAPE_REPRESENTATION ( 'A1429-6-C', ( #3, #68 ), #69 ) ;
#2 = UNCERTAINTY_MEASURE_WITH_UNIT (LENGTH_MEASURE( 1.000000000000000100E-005 ), #132, 'distance_accuracy_value', 'NONE');
#3 = MANIFOLD_SOLID_BREP ( 'Chamfer1', #294 ) ;
#4 = PERSON ( 'UNSPECIFIED', 'UNSPECIFIED', 'UNSPECIFIED', ('UNSPECIFIED'), ('UNSPECIFIED'), ('UNSPECIFIED') ) ;
#5 = PRODUCT ( 'A1429-6-C', 'A1429-6-C', '', ( #94 ) ) ;
#6 = PRODUCT_DEFINITION ( 'UNKNOWN', '', #8, #71 ) ;
#7 = CC_DESIGN_PERSON_AND_ORGANIZATION_ASSIGNMENT ( #348, #92, ( #5 ) ) ;
#8 = PRODUCT_DEFINITION_FORMATION_WITH_SPECIFIED_SOURCE ( 'ANY', '', #5, .NOT_KNOWN. ) ;
#9 = CC_DESIGN_PERSON_AND_ORGANIZATION_ASSIGNMENT ( #326, #109, ( #6 ) ) ;
#10 = CC_DESIGN_DATE_AND_TIME_ASSIGNMENT ( #322, #129, ( #6 ) ) ;
#11 = CC_DESIGN_APPROVAL ( #12, ( #6 ) ) ;
#12 = APPROVAL ( #138, 'UNSPECIFIED' ) ;
#13 = AXIS2_PLACEMENT_3D ( 'NONE', #93, #104, #103 ) ;
#14 = CC_DESIGN_PERSON_AND_ORGANIZATION_ASSIGNMENT ( #313, #192, ( #8 ) ) ;
#15 = CC_DESIGN_PERSON_AND_ORGANIZATION_ASSIGNMENT ( #312, #174, ( #16 ) ) ;
#16 = SECURITY_CLASSIFICATION ( '', '', #168 ) ;
#17 = CC_DESIGN_SECURITY_CLASSIFICATION ( #16, ( #8 ) ) ;
#18 = APPROVAL ( #119, 'UNSPECIFIED' ) ;
#19 = CC_DESIGN_APPROVAL ( #18, ( #16 ) ) ;
#20 = APPROVAL ( #205, 'UNSPECIFIED' ) ;
#21 = CC_DESIGN_DATE_AND_TIME_ASSIGNMENT ( #308, #176, ( #16 ) ) ;
#22 = AXIS2_PLACEMENT_3D ( 'NONE', #181, #123, #126 ) ;
#23 = AXIS2_PLACEMENT_3D ( 'NONE', #105, #125, #169 ) ;
#24 = AXIS2_PLACEMENT_3D ( 'NONE', #84, #122, #161 ) ;
#25 = AXIS2_PLACEMENT_3D ( 'NONE', #147, #160, #121 ) ;
#26 = AXIS2_PLACEMENT_3D ( 'NONE', #148, #167, #118 ) ;
#27 = AXIS2_PLACEMENT_3D ( 'NONE', #149, #141, #111 ) ;
#28 = AXIS2_PLACEMENT_3D ( 'NONE', #142, #191, #180 ) ;
#29 = AXIS2_PLACEMENT_3D ( 'NONE', #199, #87, #134 ) ;
#30 = AXIS2_PLACEMENT_3D ( 'NONE', #183, #131, #130 ) ;
#31 = AXIS2_PLACEMENT_3D ( 'NONE', #137, #182, #187 ) ;
#32 = AXIS2_PLACEMENT_3D ( 'NONE', #139, #170, #116 ) ;
#33 = EDGE_CURVE ( 'NONE', #232, #292, #287, .T. ) ;
#34 = EDGE_CURVE ( 'NONE', #284, #222, #298, .T. ) ;
#35 = EDGE_CURVE ( 'NONE', #222, #351, #288, .T. ) ;
#36 = EDGE_CURVE ( 'NONE', #209, #296, #286, .T. ) ;
#37 = EDGE_CURVE ( 'NONE', #255, #284, #278, .T. ) ;
#38 = EDGE_CURVE ( 'NONE', #238, #209, #274, .T. ) ;
#39 = EDGE_CURVE ( 'NONE', #255, #220, #272, .T. ) ;
#40 = EDGE_CURVE ( 'NONE', #351, #269, #273, .T. ) ;
#41 = AXIS2_PLACEMENT_3D ( 'NONE', #101, #196, #144 ) ;
#42 = EDGE_CURVE ( 'NONE', #296, #354, #271, .T. ) ;
#43 = EDGE_CURVE ( 'NONE', #209, #238, #268, .T. ) ;
#44 = EDGE_CURVE ( 'NONE', #220, #269, #266, .T. ) ;
#45 = EDGE_CURVE ( 'NONE', #238, #354, #265, .T. ) ;
#46 = EDGE_CURVE ( 'NONE', #222, #220, #262, .T. ) ;
#47 = EDGE_CURVE ( 'NONE', #220, #222, #259, .T. ) ;
#48 = AXIS2_PLACEMENT_3D ( 'NONE', #158, #159, #195 ) ;
#49 = AXIS2_PLACEMENT_3D ( 'NONE', #136, #140, #156 ) ;
#50 = AXIS2_PLACEMENT_3D ( 'NONE', #185, #106, #197 ) ;
#51 = AXIS2_PLACEMENT_3D ( 'NONE', #110, #143, #190 ) ;
#52 = AXIS2_PLACEMENT_3D ( 'NONE', #201, #200, #198 ) ;
#53 = AXIS2_PLACEMENT_3D ( 'NONE', #163, #165, #166 ) ;
#54 = AXIS2_PLACEMENT_3D ( 'NONE', #154, #124, #157 ) ;
#55 = AXIS2_PLACEMENT_3D ( 'NONE', #162, #150, #120 ) ;
#56 = AXIS2_PLACEMENT_3D ( 'NONE', #202, #171, #172 ) ;
#57 = AXIS2_PLACEMENT_3D ( 'NONE', #206, #177, #135 ) ;
#58 = EDGE_CURVE ( 'NONE', #284, #255, #257, .T. ) ;
#59 = AXIS2_PLACEMENT_3D ( 'NONE', #107, #102, #98 ) ;
#60 = EDGE_CURVE ( 'NONE', #354, #296, #254, .T. ) ;
#61 = EDGE_CURVE ( 'NONE', #292, #232, #264, .T. ) ;
#62 = EDGE_CURVE ( 'NONE', #354, #232, #250, .T. ) ;
#63 = EDGE_CURVE ( 'NONE', #269, #351, #249, .T. ) ;
#64 = PRODUCT_RELATED_PRODUCT_CATEGORY ( 'detail', '', ( #5 ) ) ;
#65 = EDGE_CURVE ( 'NONE', #296, #292, #247, .T. ) ;
#66 = CC_DESIGN_APPROVAL ( #20, ( #8 ) ) ;
#67 = CC_DESIGN_PERSON_AND_ORGANIZATION_ASSIGNMENT ( #314, #189, ( #8 ) ) ;
#68 = AXIS2_PLACEMENT_3D ( 'NONE', #96, #115, #113 ) ;
#69 =( GEOMETRIC_REPRESENTATION_CONTEXT ( 3 ) GLOBAL_UNCERTAINTY_ASSIGNED_CONTEXT ( ( #2 ) ) GLOBAL_UNIT_ASSIGNED_CONTEXT ( ( #132, #152, #151 ) ) REPRESENTATION_CONTEXT ( 'NONE', 'WORKASPACE' ) );
#70 = PRODUCT_DEFINITION_SHAPE ( 'NONE', 'NONE',  #6 ) ;
#71 = DESIGN_CONTEXT ( 'detailed design', #91, 'design' ) ;
#72 = ADVANCED_FACE ( 'NONE', ( #242, #251 ), #90, .T. ) ;
#73 = DIMENSIONAL_EXPONENTS ( 1.000000000000000000, 0.0000000000000000000, 0.0000000000000000000, 0.0000000000000000000, 0.0000000000000000000, 0.0000000000000000000, 0.0000000000000000000 ) ;
#74 = ADVANCED_FACE ( 'NONE', ( #243 ), #237, .F. ) ;
#75 = ADVANCED_FACE ( 'NONE', ( #240, #236 ), #184, .T. ) ;
#76 = ADVANCED_FACE ( 'NONE', ( #245 ), #226, .F. ) ;
#77 = ADVANCED_FACE ( 'NONE', ( #234 ), #241, .F. ) ;
#78 = ADVANCED_FACE ( 'NONE', ( #239 ), #227, .T. ) ;
#79 = ADVANCED_FACE ( 'NONE', ( #221 ), #215, .T. ) ;
#80 = ADVANCED_FACE ( 'NONE', ( #224 ), #214, .T. ) ;
#81 = ADVANCED_FACE ( 'NONE', ( #228 ), #219, .T. ) ;
#82 = ADVANCED_FACE ( 'NONE', ( #212 ), #208, .F. ) ;
#83 = CARTESIAN_POINT ( 'NONE',  ( 0.0000000000000000000, 0.07499999999999999700, -0.07300000000000002300 ) ) ;
#84 = CARTESIAN_POINT ( 'NONE',  ( 0.0000000000000000000, 0.07499999999999999700, 0.0000000000000000000 ) ) ;
#85 = CARTESIAN_POINT ( 'NONE',  ( 2.241103642439656600E-017, 0.3107159973513161100, 0.1830000000000000000 ) ) ;
#86 = CARTESIAN_POINT ( 'NONE',  ( 0.0000000000000000000, 0.0000000000000000000, -0.1480000000000003000 ) ) ;
#87 = DIRECTION ( 'NONE',  ( 0.0000000000000000000, 1.000000000000000000, 0.0000000000000000000 ) ) ;
#88 = CARTESIAN_POINT ( 'NONE',  ( 1.694396802145782000E-017, 0.4000000000000000200, 0.09371599735131584700 ) ) ;
#89 = CARTESIAN_POINT ( 'NONE',  ( 0.0000000000000000000, 0.07499999999999999700, -0.07300000000000002300 ) ) ;
#90 = PLANE ( 'NONE',  #27 ) ;
#91 = APPLICATION_CONTEXT ( 'configuration controlled 3d designs of mechanical parts and assemblies' ) ;
#92 = PERSON_AND_ORGANIZATION_ROLE ( 'design_owner' ) ;
#93 = CARTESIAN_POINT ( 'NONE',  ( 0.0000000000000000000, 0.3005210429089723000, 0.0000000000000000000 ) ) ;
#94 = MECHANICAL_CONTEXT ( 'NONE', #117, 'mechanical' ) ;
#95 =( LENGTH_UNIT ( ) NAMED_UNIT ( * ) SI_UNIT ( $, .METRE. ) );
#96 = CARTESIAN_POINT ( 'NONE',  ( 0.0000000000000000000, 0.0000000000000000000, 0.0000000000000000000 ) ) ;
#97 = CARTESIAN_POINT ( 'NONE',  ( 2.241103642439656600E-017, 0.0000000000000000000, 0.1830000000000000000 ) ) ;
#98 = DIRECTION ( 'NONE',  ( 0.0000000000000000000, 0.0000000000000000000, -1.000000000000000000 ) ) ;
#99 = CARTESIAN_POINT ( 'NONE',  ( 2.241103642439656600E-017, 0.0000000000000000000, 0.1830000000000000000 ) ) ;
#100 = CARTESIAN_POINT ( 'NONE',  ( 0.0000000000000000000, 0.3107159973513161100, -0.1830000000000000000 ) ) ;
#101 = CARTESIAN_POINT ( 'NONE',  ( 0.0000000000000000000, 0.0000000000000000000, 0.0000000000000000000 ) ) ;
#102 = DIRECTION ( 'NONE',  ( -0.0000000000000000000, -1.000000000000000000, -0.0000000000000000000 ) ) ;
#103 = DIRECTION ( 'NONE',  ( 0.0000000000000000000, 0.0000000000000000000, -1.000000000000000000 ) ) ;
#104 = DIRECTION ( 'NONE',  ( -0.0000000000000000000, -1.000000000000000000, -0.0000000000000000000 ) ) ;
#105 = CARTESIAN_POINT ( 'NONE',  ( 0.0000000000000000000, 0.0000000000000000000, 0.0000000000000000000 ) ) ;
#106 = DIRECTION ( 'NONE',  ( -0.0000000000000000000, -1.000000000000000000, -0.0000000000000000000 ) ) ;
#107 = CARTESIAN_POINT ( 'NONE',  ( 0.0000000000000000000, 0.0000000000000000000, 0.0000000000000000000 ) ) ;
#108 = CARTESIAN_POINT ( 'NONE',  ( 0.0000000000000000000, 0.4000000000000000200, -0.07299999999999999500 ) ) ;
#109 = PERSON_AND_ORGANIZATION_ROLE ( 'creator' ) ;
#110 = CARTESIAN_POINT ( 'NONE',  ( 0.0000000000000000000, 0.4000000000000000200, 0.0000000000000000000 ) ) ;
#111 = DIRECTION ( 'NONE',  ( 0.0000000000000000000, 0.0000000000000000000, -1.000000000000000000 ) ) ;
#112 = CARTESIAN_POINT ( 'NONE',  ( 0.0000000000000000000, 0.4000000000000000200, -0.09371599735131584700 ) ) ;
#113 = DIRECTION ( 'NONE',  ( 1.000000000000000000, 0.0000000000000000000, 0.0000000000000000000 ) ) ;
#114 = CARTESIAN_POINT ( 'NONE',  ( 8.939921633775681700E-018, 0.0000000000000000000, 0.07300000000000002300 ) ) ;
#115 = DIRECTION ( 'NONE',  ( 0.0000000000000000000, 0.0000000000000000000, 1.000000000000000000 ) ) ;
#116 = DIRECTION ( 'NONE',  ( 0.0000000000000000000, 0.0000000000000000000, -1.000000000000000000 ) ) ;
#117 = APPLICATION_CONTEXT ( 'configuration controlled 3d designs of mechanical parts and assemblies' ) ;
#118 = DIRECTION ( 'NONE',  ( 0.0000000000000000000, 0.0000000000000000000, -1.000000000000000000 ) ) ;
#119 = APPROVAL_STATUS ( 'not_yet_approved' ) ;
#120 = DIRECTION ( 'NONE',  ( 0.0000000000000000000, 0.0000000000000000000, -1.000000000000000000 ) ) ;
#121 = DIRECTION ( 'NONE',  ( 0.0000000000000000000, -0.0000000000000000000, 1.000000000000000000 ) ) ;
#122 = DIRECTION ( 'NONE',  ( 0.0000000000000000000, -1.000000000000000000, 0.0000000000000000000 ) ) ;
#123 = DIRECTION ( 'NONE',  ( -0.0000000000000000000, -1.000000000000000000, -0.0000000000000000000 ) ) ;
#124 = DIRECTION ( 'NONE',  ( -1.000000000000000000, 0.0000000000000000000, 0.0000000000000000000 ) ) ;
#125 = DIRECTION ( 'NONE',  ( -0.0000000000000000000, -1.000000000000000000, -0.0000000000000000000 ) ) ;
#126 = DIRECTION ( 'NONE',  ( 0.0000000000000000000, 0.0000000000000000000, -1.000000000000000000 ) ) ;
#127 = APPLICATION_PROTOCOL_DEFINITION ( 'international standard', 'config_control_design', 1994, #117 ) ;
#128 = DIRECTION ( 'NONE',  ( -0.0000000000000000000, -1.000000000000000000, -0.0000000000000000000 ) ) ;
#129 = DATE_TIME_ROLE ( 'creation_date' ) ;
#130 = DIRECTION ( 'NONE',  ( 0.0000000000000000000, 0.0000000000000000000, -1.000000000000000000 ) ) ;
#131 = DIRECTION ( 'NONE',  ( -0.0000000000000000000, -1.000000000000000000, -0.0000000000000000000 ) ) ;
#132 =( CONVERSION_BASED_UNIT ( 'INCH', #353 ) LENGTH_UNIT ( ) NAMED_UNIT ( #73 ) );
#133 = CARTESIAN_POINT ( 'NONE',  ( 8.939921633775680200E-018, 0.4000000000000000200, 0.07299999999999999500 ) ) ;
#134 = DIRECTION ( 'NONE',  ( 0.0000000000000000000, 0.0000000000000000000, -1.000000000000000000 ) ) ;
#135 = DIRECTION ( 'NONE',  ( 0.0000000000000000000, 0.0000000000000000000, -1.000000000000000000 ) ) ;
#136 = CARTESIAN_POINT ( 'NONE',  ( 0.0000000000000000000, 0.0000000000000000000, 0.0000000000000000000 ) ) ;
#137 = CARTESIAN_POINT ( 'NONE',  ( 0.0000000000000000000, 0.3107159973513161100, 0.0000000000000000000 ) ) ;
#138 = APPROVAL_STATUS ( 'not_yet_approved' ) ;
#139 = CARTESIAN_POINT ( 'NONE',  ( 0.0000000000000000000, 0.4000000000000000200, 0.0000000000000000000 ) ) ;
#140 = DIRECTION ( 'NONE',  ( -0.0000000000000000000, -1.000000000000000000, -0.0000000000000000000 ) ) ;
#141 = DIRECTION ( 'NONE',  ( 0.0000000000000000000, -1.000000000000000000, -0.0000000000000000000 ) ) ;
#142 = CARTESIAN_POINT ( 'NONE',  ( 0.0000000000000000000, 0.07499999999999999700, 0.0000000000000000000 ) ) ;
#143 = DIRECTION ( 'NONE',  ( -0.0000000000000000000, -1.000000000000000000, -0.0000000000000000000 ) ) ;
#144 = DIRECTION ( 'NONE',  ( 0.0000000000000000000, 0.0000000000000000000, -1.000000000000000000 ) ) ;
#145 = APPROVAL_ROLE ( '' ) ;
#146 = DIRECTION ( 'NONE',  ( -0.0000000000000000000, -1.000000000000000000, -0.0000000000000000000 ) ) ;
#147 = CARTESIAN_POINT ( 'NONE',  ( 0.07299999999999999500, 0.4000000000000000200, 0.0000000000000000000 ) ) ;
#148 = CARTESIAN_POINT ( 'NONE',  ( 0.0000000000000000000, 0.0000000000000000000, 0.0000000000000000000 ) ) ;
#149 = CARTESIAN_POINT ( 'NONE',  ( 0.07300000000000005100, 0.0000000000000000000, 0.0000000000000000000 ) ) ;
#150 = DIRECTION ( 'NONE',  ( -0.0000000000000000000, -1.000000000000000000, -0.0000000000000000000 ) ) ;
#151 =( NAMED_UNIT ( * ) SI_UNIT ( $, .STERADIAN. ) SOLID_ANGLE_UNIT ( ) );
#152 =( NAMED_UNIT ( * ) PLANE_ANGLE_UNIT ( ) SI_UNIT ( $, .RADIAN. ) );
#153 = APPROVAL_ROLE ( '' ) ;
#154 = CARTESIAN_POINT ( 'NONE',  ( 0.0000000000000000000, 0.3005210429089723000, -0.08352104290897229000 ) ) ;
#155 = APPLICATION_PROTOCOL_DEFINITION ( 'international standard', 'config_control_design', 1994, #91 ) ;
#156 = DIRECTION ( 'NONE',  ( 0.0000000000000000000, 0.0000000000000000000, -1.000000000000000000 ) ) ;
#157 = DIRECTION ( 'NONE',  ( 0.0000000000000000000, 0.0000000000000000000, 1.000000000000000000 ) ) ;
#158 = CARTESIAN_POINT ( 'NONE',  ( 1.022837778599216500E-017, 0.3005210429089723000, 0.08352104290897229000 ) ) ;
#159 = DIRECTION ( 'NONE',  ( 1.000000000000000000, 0.0000000000000000000, -1.224646799147353200E-016 ) ) ;
#160 = DIRECTION ( 'NONE',  ( 0.0000000000000000000, 1.000000000000000000, 0.0000000000000000000 ) ) ;
#161 = DIRECTION ( 'NONE',  ( 0.0000000000000000000, 0.0000000000000000000, -1.000000000000000000 ) ) ;
#162 = CARTESIAN_POINT ( 'NONE',  ( 0.0000000000000000000, 0.4000000000000000200, 0.0000000000000000000 ) ) ;
#163 = CARTESIAN_POINT ( 'NONE',  ( 0.0000000000000000000, 0.0000000000000000000, 0.0000000000000000000 ) ) ;
#164 = CARTESIAN_POINT ( 'NONE',  ( 8.939921633775681700E-018, 0.07499999999999999700, 0.07300000000000002300 ) ) ;
#165 = DIRECTION ( 'NONE',  ( 0.0000000000000000000, 1.000000000000000000, 0.0000000000000000000 ) ) ;
#166 = DIRECTION ( 'NONE',  ( 0.0000000000000000000, 0.0000000000000000000, -1.000000000000000000 ) ) ;
#167 = DIRECTION ( 'NONE',  ( -0.0000000000000000000, -1.000000000000000000, -0.0000000000000000000 ) ) ;
#168 = SECURITY_CLASSIFICATION_LEVEL ( 'unclassified' ) ;
#169 = DIRECTION ( 'NONE',  ( 0.0000000000000000000, 0.0000000000000000000, -1.000000000000000000 ) ) ;
#170 = DIRECTION ( 'NONE',  ( -0.0000000000000000000, -1.000000000000000000, -0.0000000000000000000 ) ) ;
#171 = DIRECTION ( 'NONE',  ( 0.0000000000000000000, -1.000000000000000000, 0.0000000000000000000 ) ) ;
#172 = DIRECTION ( 'NONE',  ( 0.0000000000000000000, 0.0000000000000000000, -1.000000000000000000 ) ) ;
#173 = CARTESIAN_POINT ( 'NONE',  ( 8.939921633775681700E-018, 0.07499999999999999700, 0.07300000000000002300 ) ) ;
#174 = PERSON_AND_ORGANIZATION_ROLE ( 'classification_officer' ) ;
#175 = CARTESIAN_POINT ( 'NONE',  ( 0.0000000000000000000, 0.0000000000000000000, -0.1830000000000000000 ) ) ;
#176 = DATE_TIME_ROLE ( 'classification_date' ) ;
#177 = DIRECTION ( 'NONE',  ( 0.0000000000000000000, -1.000000000000000000, 0.0000000000000000000 ) ) ;
#178 = CARTESIAN_POINT ( 'NONE',  ( 0.0000000000000000000, 0.0000000000000000000, -0.1830000000000000000 ) ) ;
#179 = DIRECTION ( 'NONE',  ( 0.0000000000000000000, -0.7071067811865461300, -0.7071067811865487900 ) ) ;
#180 = DIRECTION ( 'NONE',  ( 0.0000000000000000000, 0.0000000000000000000, -1.000000000000000000 ) ) ;
#181 = CARTESIAN_POINT ( 'NONE',  ( 0.0000000000000000000, 0.3005210429089723000, 0.0000000000000000000 ) ) ;
#182 = DIRECTION ( 'NONE',  ( -0.0000000000000000000, -1.000000000000000000, -0.0000000000000000000 ) ) ;
#183 = CARTESIAN_POINT ( 'NONE',  ( 0.0000000000000000000, 0.0000000000000000000, 0.0000000000000000000 ) ) ;
#184 = PLANE ( 'NONE',  #25 ) ;
#185 = CARTESIAN_POINT ( 'NONE',  ( 0.0000000000000000000, 0.4000000000000000200, 0.0000000000000000000 ) ) ;
#186 = APPROVAL_ROLE ( '' ) ;
#187 = DIRECTION ( 'NONE',  ( 0.0000000000000000000, 0.0000000000000000000, -1.000000000000000000 ) ) ;
#188 = DIRECTION ( 'NONE',  ( 8.659560562354948900E-017, -0.7071067811865461300, 0.7071067811865487900 ) ) ;
#189 = PERSON_AND_ORGANIZATION_ROLE ( 'creator' ) ;
#190 = DIRECTION ( 'NONE',  ( 0.0000000000000000000, 0.0000000000000000000, -1.000000000000000000 ) ) ;
#191 = DIRECTION ( 'NONE',  ( 0.0000000000000000000, -1.000000000000000000, 0.0000000000000000000 ) ) ;
#192 = PERSON_AND_ORGANIZATION_ROLE ( 'design_supplier' ) ;
#193 = DIRECTION ( 'NONE',  ( -0.0000000000000000000, -1.000000000000000000, -0.0000000000000000000 ) ) ;
#194 = CARTESIAN_POINT ( 'NONE',  ( 1.812477262738086400E-017, 0.0000000000000000000, 0.1480000000000003000 ) ) ;
#195 = DIRECTION ( 'NONE',  ( -1.224646799147353200E-016, 0.0000000000000000000, -1.000000000000000000 ) ) ;
#196 = DIRECTION ( 'NONE',  ( -0.0000000000000000000, -1.000000000000000000, -0.0000000000000000000 ) ) ;
#197 = DIRECTION ( 'NONE',  ( 0.0000000000000000000, 0.0000000000000000000, -1.000000000000000000 ) ) ;
#198 = DIRECTION ( 'NONE',  ( 0.0000000000000000000, 0.0000000000000000000, -1.000000000000000000 ) ) ;
#199 = CARTESIAN_POINT ( 'NONE',  ( 0.0000000000000000000, 0.0000000000000000000, 0.0000000000000000000 ) ) ;
#200 = DIRECTION ( 'NONE',  ( -0.0000000000000000000, -1.000000000000000000, -0.0000000000000000000 ) ) ;
#201 = CARTESIAN_POINT ( 'NONE',  ( 0.0000000000000000000, 0.3107159973513161100, 0.0000000000000000000 ) ) ;
#202 = CARTESIAN_POINT ( 'NONE',  ( 0.0000000000000000000, 0.07499999999999999700, 0.0000000000000000000 ) ) ;
#203 = DIRECTION ( 'NONE',  ( -0.0000000000000000000, -1.000000000000000000, -0.0000000000000000000 ) ) ;
#204 = CARTESIAN_POINT ( 'NONE',  ( 0.0000000000000000000, 0.0000000000000000000, -0.07300000000000002300 ) ) ;
#205 = APPROVAL_STATUS ( 'not_yet_approved' ) ;
#206 = CARTESIAN_POINT ( 'NONE',  ( 0.0000000000000000000, 0.07499999999999999700, 0.0000000000000000000 ) ) ;
#207 = ORIENTED_EDGE ( 'NONE', *, *, #39, .T. ) ;
#208 = CONICAL_SURFACE ( 'NONE', #24, 0.07300000000000002300, 0.7853981633974501700 ) ;
#209 = VERTEX_POINT ( 'NONE', #88 ) ;
#210 = ORIENTED_EDGE ( 'NONE', *, *, #37, .F. ) ;
#211 = ORIENTED_EDGE ( 'NONE', *, *, #60, .F. ) ;
#212 = FACE_OUTER_BOUND ( 'NONE', #339, .T. ) ;
#213 = ORIENTED_EDGE ( 'NONE', *, *, #65, .F. ) ;
#214 = CYLINDRICAL_SURFACE ( 'NONE', #59, 0.1830000000000000000 ) ;
#215 = CYLINDRICAL_SURFACE ( 'NONE', #41, 0.1830000000000000000 ) ;
#216 = ORIENTED_EDGE ( 'NONE', *, *, #44, .F. ) ;
#217 = ORIENTED_EDGE ( 'NONE', *, *, #62, .F. ) ;
#218 = ORIENTED_EDGE ( 'NONE', *, *, #47, .T. ) ;
#219 = TOROIDAL_SURFACE ( 'NONE', #13, 0.08352104290897229000, 0.09999999999999999200 ) ;
#220 = VERTEX_POINT ( 'NONE', #173 ) ;
#221 = FACE_OUTER_BOUND ( 'NONE', #337, .T. ) ;
#222 = VERTEX_POINT ( 'NONE', #83 ) ;
#223 = ORIENTED_EDGE ( 'NONE', *, *, #46, .F. ) ;
#224 = FACE_OUTER_BOUND ( 'NONE', #340, .T. ) ;
#225 = ORIENTED_EDGE ( 'NONE', *, *, #65, .T. ) ;
#226 = CONICAL_SURFACE ( 'NONE', #28, 0.07300000000000002300, 0.7853981633974501700 ) ;
#227 = TOROIDAL_SURFACE ( 'NONE', #22, 0.08352104290897229000, 0.09999999999999999200 ) ;
#228 = FACE_OUTER_BOUND ( 'NONE', #334, .T. ) ;
#229 = ORIENTED_EDGE ( 'NONE', *, *, #40, .T. ) ;
#230 = SHAPE_DEFINITION_REPRESENTATION ( #70, #1 ) ;
#231 = ORIENTED_EDGE ( 'NONE', *, *, #42, .F. ) ;
#232 = VERTEX_POINT ( 'NONE', #178 ) ;
#233 = ORIENTED_EDGE ( 'NONE', *, *, #34, .T. ) ;
#234 = FACE_OUTER_BOUND ( 'NONE', #342, .T. ) ;
#235 = ORIENTED_EDGE ( 'NONE', *, *, #42, .T. ) ;
#236 = FACE_OUTER_BOUND ( 'NONE', #276, .T. ) ;
#237 = CYLINDRICAL_SURFACE ( 'NONE', #26, 0.07300000000000002300 ) ;
#238 = VERTEX_POINT ( 'NONE', #112 ) ;
#239 = FACE_OUTER_BOUND ( 'NONE', #338, .T. ) ;
#240 = FACE_BOUND ( 'NONE', #335, .T. ) ;
#241 = CYLINDRICAL_SURFACE ( 'NONE', #23, 0.07300000000000002300 ) ;
#242 = FACE_BOUND ( 'NONE', #341, .T. ) ;
#243 = FACE_OUTER_BOUND ( 'NONE', #336, .T. ) ;
#244 = VECTOR ( 'NONE', #146, 39.37007874015748100 ) ;
#245 = FACE_OUTER_BOUND ( 'NONE', #258, .T. ) ;
#246 = ORIENTED_EDGE ( 'NONE', *, *, #34, .F. ) ;
#247 = LINE ( 'NONE', #97, #244 ) ;
#248 = VECTOR ( 'NONE', #193, 39.37007874015748100 ) ;
#249 = CIRCLE ( 'NONE', #29, 0.1480000000000003000 ) ;
#250 = LINE ( 'NONE', #175, #248 ) ;
#251 = FACE_OUTER_BOUND ( 'NONE', #344, .T. ) ;
#252 = ORIENTED_EDGE ( 'NONE', *, *, #47, .F. ) ;
#253 = ORIENTED_EDGE ( 'NONE', *, *, #33, .T. ) ;
#254 = CIRCLE ( 'NONE', #31, 0.1830000000000000000 ) ;
#255 = VERTEX_POINT ( 'NONE', #133 ) ;
#256 = ORIENTED_EDGE ( 'NONE', *, *, #44, .T. ) ;
#257 = CIRCLE ( 'NONE', #32, 0.07299999999999999500 ) ;
#258 = EDGE_LOOP ( 'NONE', ( #216, #223, #300, #279 ) ) ;
#259 = CIRCLE ( 'NONE', #56, 0.07300000000000002300 ) ;
#260 = ORIENTED_EDGE ( 'NONE', *, *, #63, .T. ) ;
#261 = ORIENTED_EDGE ( 'NONE', *, *, #38, .F. ) ;
#262 = CIRCLE ( 'NONE', #57, 0.07300000000000002300 ) ;
#263 = VECTOR ( 'NONE', #188, 39.37007874015748900 ) ;
#264 = CIRCLE ( 'NONE', #30, 0.1830000000000000000 ) ;
#265 = CIRCLE ( 'NONE', #54, 0.09999999999999999200 ) ;
#266 = LINE ( 'NONE', #164, #263 ) ;
#267 = ORIENTED_EDGE ( 'NONE', *, *, #62, .T. ) ;
#268 = CIRCLE ( 'NONE', #55, 0.09371599735131584700 ) ;
#269 = VERTEX_POINT ( 'NONE', #194 ) ;
#270 = VECTOR ( 'NONE', #128, 39.37007874015748100 ) ;
#271 = CIRCLE ( 'NONE', #52, 0.1830000000000000000 ) ;
#272 = LINE ( 'NONE', #114, #270 ) ;
#273 = CIRCLE ( 'NONE', #53, 0.1480000000000003000 ) ;
#274 = CIRCLE ( 'NONE', #50, 0.09371599735131584700 ) ;
#275 = ORIENTED_EDGE ( 'NONE', *, *, #58, .F. ) ;
#276 = EDGE_LOOP ( 'NONE', ( #261, #350 ) ) ;
#277 = VECTOR ( 'NONE', #179, 39.37007874015748900 ) ;
#278 = CIRCLE ( 'NONE', #51, 0.07299999999999999500 ) ;
#279 = ORIENTED_EDGE ( 'NONE', *, *, #63, .F. ) ;
#280 = ORIENTED_EDGE ( 'NONE', *, *, #61, .F. ) ;
#281 = ORIENTED_EDGE ( 'NONE', *, *, #38, .T. ) ;
#282 = ORIENTED_EDGE ( 'NONE', *, *, #46, .T. ) ;
#283 = ORIENTED_EDGE ( 'NONE', *, *, #60, .T. ) ;
#284 = VERTEX_POINT ( 'NONE', #108 ) ;
#285 = VECTOR ( 'NONE', #203, 39.37007874015748100 ) ;
#286 = CIRCLE ( 'NONE', #48, 0.09999999999999999200 ) ;
#287 = CIRCLE ( 'NONE', #49, 0.1830000000000000000 ) ;
#288 = LINE ( 'NONE', #89, #277 ) ;
#289 = ORIENTED_EDGE ( 'NONE', *, *, #36, .F. ) ;
#290 = ORIENTED_EDGE ( 'NONE', *, *, #37, .T. ) ;
#291 = ORIENTED_EDGE ( 'NONE', *, *, #43, .T. ) ;
#292 = VERTEX_POINT ( 'NONE', #99 ) ;
#293 = ORIENTED_EDGE ( 'NONE', *, *, #40, .F. ) ;
#294 = CLOSED_SHELL ( 'NONE', ( #82, #78, #74, #79, #80, #72, #77, #75, #81, #76 ) ) ;
#295 = ORIENTED_EDGE ( 'NONE', *, *, #58, .T. ) ;
#296 = VERTEX_POINT ( 'NONE', #85 ) ;
#297 = ORIENTED_EDGE ( 'NONE', *, *, #45, .T. ) ;
#298 = LINE ( 'NONE', #204, #285 ) ;
#299 = ORIENTED_EDGE ( 'NONE', *, *, #35, .F. ) ;
#300 = ORIENTED_EDGE ( 'NONE', *, *, #35, .T. ) ;
#301 = APPROVAL_DATE_TIME ( #302, #18 ) ;
#302 = DATE_AND_TIME ( #303, #304 ) ;
#303 = CALENDAR_DATE ( 2013, 12, 11 ) ;
#304 = LOCAL_TIME ( 8, 47, 45.00000000000000000, #305 ) ;
#305 = COORDINATED_UNIVERSAL_TIME_OFFSET ( 5, 0, .BEHIND. ) ;
#306 = APPROVAL_PERSON_ORGANIZATION ( #307, #18, #145 ) ;
#307 = PERSON_AND_ORGANIZATION ( #4, #349 ) ;
#308 = DATE_AND_TIME ( #309, #310 ) ;
#309 = CALENDAR_DATE ( 2013, 12, 11 ) ;
#310 = LOCAL_TIME ( 8, 47, 45.00000000000000000, #311 ) ;
#311 = COORDINATED_UNIVERSAL_TIME_OFFSET ( 5, 0, .BEHIND. ) ;
#312 = PERSON_AND_ORGANIZATION ( #4, #349 ) ;
#313 = PERSON_AND_ORGANIZATION ( #4, #349 ) ;
#314 = PERSON_AND_ORGANIZATION ( #4, #349 ) ;
#315 = APPROVAL_DATE_TIME ( #316, #20 ) ;
#316 = DATE_AND_TIME ( #317, #318 ) ;
#317 = CALENDAR_DATE ( 2013, 12, 11 ) ;
#318 = LOCAL_TIME ( 8, 47, 45.00000000000000000, #319 ) ;
#319 = COORDINATED_UNIVERSAL_TIME_OFFSET ( 5, 0, .BEHIND. ) ;
#320 = APPROVAL_PERSON_ORGANIZATION ( #321, #20, #186 ) ;
#321 = PERSON_AND_ORGANIZATION ( #4, #349 ) ;
#322 = DATE_AND_TIME ( #323, #324 ) ;
#323 = CALENDAR_DATE ( 2013, 12, 11 ) ;
#324 = LOCAL_TIME ( 8, 47, 45.00000000000000000, #325 ) ;
#325 = COORDINATED_UNIVERSAL_TIME_OFFSET ( 5, 0, .BEHIND. ) ;
#326 = PERSON_AND_ORGANIZATION ( #4, #349 ) ;
#327 = APPROVAL_DATE_TIME ( #328, #12 ) ;
#328 = DATE_AND_TIME ( #329, #330 ) ;
#329 = CALENDAR_DATE ( 2013, 12, 11 ) ;
#330 = LOCAL_TIME ( 8, 47, 45.00000000000000000, #331 ) ;
#331 = COORDINATED_UNIVERSAL_TIME_OFFSET ( 5, 0, .BEHIND. ) ;
#332 = APPROVAL_PERSON_ORGANIZATION ( #347, #12, #153 ) ;
#333 = ORIENTED_EDGE ( 'NONE', *, *, #61, .T. ) ;
#334 = EDGE_LOOP ( 'NONE', ( #289, #291, #297, #231 ) ) ;
#335 = EDGE_LOOP ( 'NONE', ( #295, #290 ) ) ;
#336 = EDGE_LOOP ( 'NONE', ( #210, #207, #218, #246 ) ) ;
#337 = EDGE_LOOP ( 'NONE', ( #283, #225, #346, #217 ) ) ;
#338 = EDGE_LOOP ( 'NONE', ( #281, #345, #211, #352 ) ) ;
#339 = EDGE_LOOP ( 'NONE', ( #252, #256, #293, #299 ) ) ;
#340 = EDGE_LOOP ( 'NONE', ( #213, #235, #267, #280 ) ) ;
#341 = EDGE_LOOP ( 'NONE', ( #229, #260 ) ) ;
#342 = EDGE_LOOP ( 'NONE', ( #343, #275, #233, #282 ) ) ;
#343 = ORIENTED_EDGE ( 'NONE', *, *, #39, .F. ) ;
#344 = EDGE_LOOP ( 'NONE', ( #253, #333 ) ) ;
#345 = ORIENTED_EDGE ( 'NONE', *, *, #36, .T. ) ;
#346 = ORIENTED_EDGE ( 'NONE', *, *, #33, .F. ) ;
#347 = PERSON_AND_ORGANIZATION ( #4, #349 ) ;
#348 = PERSON_AND_ORGANIZATION ( #4, #349 ) ;
#349 = ORGANIZATION ( 'UNSPECIFIED', 'UNSPECIFIED', '' ) ;
#350 = ORIENTED_EDGE ( 'NONE', *, *, #43, .F. ) ;
#351 = VERTEX_POINT ( 'NONE', #86 ) ;
#352 = ORIENTED_EDGE ( 'NONE', *, *, #45, .F. ) ;
#353 = LENGTH_MEASURE_WITH_UNIT ( LENGTH_MEASURE( 0.02539999999999999900 ), #95 );
#354 = VERTEX_POINT ( 'NONE', #100 ) ;
ENDSEC;
END-ISO-10303-21;
